Guns and Roses - Anything Goes
------------------------------
Most Chords are just 5ths with no 3rd except G and D which are played
the standard open way. Somethings are probably wrong cos I lack the
patience, thus no guitar solo. I always ad lib anyway. Any corrections welcome.
Intro-
A7 (let ring)
---------9--------9----------------9----------9/---------------------------------------------|
------------8----10--------------------8-----10/---------------------------------------------|
----8/9-----------9---------8/9---------------9/---------------------------------------------|
----------------------------------------------------------------------------------------------|
----------------------------------------------------------------------------------------------|
----------------------------------------------------------------------------------------------|
----------------------------------------------------------------------------------------------|
----------------------------------------------------------------------------------------------|
------------9---8-----------8---7-------------7---6-------------6----5------------------------|
------------7---6-----------6---5-------------5---4-------------4----3------------------------|
--0--0---------------0--0-------------0--0-------------0--0-----------------------------------|
----------------------------------------------------------------------------------------------|
Riff 1
----------------------------------------------------|
----------------------------------------------------|
----------------------------------------------------|
--------7---6------6---5--------5---4-------3----2--|
--0--0---------0-----------0------------0-----------|Repeat 3 times
----------------------------------------------------|
----------------------------------------------------------------------------------------------|
----------------------------------------------------------------------------------------------|
----------------------------------------------------------------------------------------------|
--------7---6------6--5------------7----5-----------------------------------------------------|
--0--0---------0-----------------------------7-----4----2-------------------------------------|
-------------------------------------------------------------3--------------------------------|
Verse
I`ve been thinkin`......
----------------------------------------------------------------------------------------------|
---------------------------------------------------------------------------------------3------|
---------------------------------------------------------------------------------------2----2-|
---------------------------------------------------------------------------------------0----2-|
----------------2----4-----------------------5----4---------------2---4---------------------0-|
---0---3---4--------------0---0----3----4-------------0---3--4-----------0--0--3--4-----------|
Well maybe baby....
-----------------------------------------------------------------------------------------------|
-----------------------------------------------------------------------------------------------|
-----------------------------------------------------------------------------------------------|
-----------------------------------------------------------------------------------------------|
----------------2----4-----------------------5----4---------------2---4------------------------|
---0---3---4--------------0---0----3----4-------------0---3--4-----------0--0--3---4------1--2-|
Chorus 1
G D
My way your way any thing goes
Tonight
A
----------------------------------------------------------------------------------------------|
----------------------------------------------------------------------------------------------|
----2----2----2--2---2--2--2------------------------------------------------------------------|
----2----2----2--2---2--2--2----2-------------------------------------------------------------|
----0----0----0--0---0--0--0----0---3---0---3---0---------------------------------------------|
----------------------------------------------------------------------------------------------|
G D
My way your way any thing goes
To
-------------------------------------------------------------------------------------------------------|
-------------------------------------------------------------------------------------------------------|
-------------------------------------------------------------------------------------------------------|
----5--------------------------------------------------------------------------------------------------|
----------7-----------5----7-----5----4----2---4---2---------------------------------------------------|
----------------7---------------------------------------3----------------------------------------------|
Repeat Verse
Chorus 2
G D
My way your way any thing goes
Tonight
A
----------------------------------------------------------------------------------------------|
----------------------------------------------------------------------------------------------|
----2----2----2--2---2--2--2------------------------------------------------------------------|
----2----2----2--2---2--2--2----2-------------------------------------------------------------|
----0----0----0--0---0--0--0----0---3---0---3---0---------------------------------------------|
----------------------------------------------------------------------------------------------|
G D
My way your way any thing goes
A
Tonight
G D
My way your way any thing goes
---------------------------------------------------------------------------------------------|
---------------------------------------------------------------------------------------------|
---------------------------------------------------------------------------------------------|
-------------------2---4---5--5--5---4--4---2-2----------------------------------------------|
----0--0--3---4-------------------------------------3----------------------------------------|
---------------------------------------------------------------------------------------------|
G D
My way your way any thing goes
B
Tonight
B C C# D E
---------------------------------------------------------------------------------------------|
---------------------------------------------------------------------------------------------|
--------4-------5-------6---------7--------9-------------------------------------------------|
--------4-------5-------6---------7--------9-------------------------------------------------|
--------2-------3-------4---------5--------7-------------------------------------------------|
---------------------------------------------------------------------------------------------|
Guitar Solo is really a distorted voice mostly
E B
B A# A G#
G D A
G D A
Repeat Chorus 2
Then Riff 1
G D
Say anything Goes
A
Tonight




Ваше мнение



Капча