-##
Received: from mail.uncc.edu (mail.uncc.edu [152.15.10.135]) by post-office.nevada.edu (8.6.4/8.6.4) with ESMTP id PAA26269 for ; Sat, 19 Mar 1994 15:15:31 -0800
Received: from ws196.uncc.edu (ws196.uncc.edu [152.15.10.148]) by mail.uncc.edu (8.6.4/8.6.4) with ESMTP id SAA25108; Sat, 19 Mar 1994 18:14:39 -0500
From: Christopher M Pilato
Received: from localhost ([email protected]) by ws196.uncc.edu (8.6.4/8.6.4) id SAA03298; Sat, 19 Mar 1994 18:15:11 -0500
Date: Sat, 19 Mar 1994 18:15:11 -0500
Message-Id:
To: [email protected], [email protected], [email protected],
[email protected], [email protected], [email protected]
Subject: DoYouKnowWhatLoveIs.tab by Guardian
"DO YOU KNOW WHAT LOVE IS"
by Guardian
from the CD "Miracle Mile"
transcribed by Mike Pilato
using the standard tuning
and typical compu-tabbing
conventions: /,\ = slides
# = harmonic
^ = bend
p = pulloff
h = hammer on
(Special notation: top staff = GTR1, bottom staff (if present) = GTR2
Chords over top staff = played on background acoustic)
|-0-----------1----|------------------|-3----------------|------------------|
|------------------|------------------|-3------------1---|-------------3----|
|-------------3----|------------------|--------------2---|------------------|
|------------------|------------------|------------------|------------------|
|-3----------------|------------------|--------------0---|-------------2----|
|-------------1----|------------------|-3----------------|------------------|
|-------------1----|------------------|-3------------1---|------------------|
|-5--/6--/8--------|------------------|-3------------1---|------------------|
|-------------3----|------------------|------------------|------------------|
|------------------|------------------|------------------|------------------|
|-3--/5--/7--------|------------------|--------------1---|------------------|
|-------------1----|------------------|-3----------------|------------------|
[pause...]
****VERSE 1****
|-0----------------|-3---3-------0----|------------------|------------------|
|------------------|-3---3------------|------------------|-----1------------|
|------------------|------------------|------------------|-----0------------|
|------------------|------------------|------------------|-0h2--------------|
|-0----------------|-2---2-------3----|------------------|------------------|
|------------------|------------------|------------------|------------------|
Did you find that loneliness came when you lost you only love?
|-5----------------|-0---0-------1----|------------------|------------------|
|------------------|------------------|------------------|------------------|
|------------------|-------------3----|------------------|------------------|
|-0----------------|-2---2------------|------------------|------------------|
|------------------|-3---3------------|------------------|------------------|
|------------------|-------------1----|------------------|------------------|
And you didn't know which way to turn.... The
|------------------|-----3------------|------------------|------------------|
|------------------|-----3------------|-------------5----|-6--5---------5---|
|------------------|------------------|-----------5------|-7--5---------5---|
|------------------|------------------|---------5--------|-----7-(5)/7--5---|
|-0----------------|-2---2-------3----|-----5-7----------|------------------|
|------------------|------------------|------------------|------------------|
nights were cold and the days were long and you never knew
|------------------|-0---0------------|------------------|-------------3----|
|-6----------------|-------------3----|------------------|-----------3------|
|-5----------------|-------------3----|------------------|---------3--------|
|------------------|------------------|------------------|-----3-5----------|
|-5----------------|-3---3-------1----|------------------|------------------|
|-------------1----|------------------|------------------|------------------|
when a real love would come to you. All the
|-5----------------|-------------12---|---------0--------|---------3--------|
|-------------5----|------------------|------------------|---------3--------|
|-5-----------5----|------------------|------------------|------------------|
|-0----------------|------------------|------------------|------------------|
|-------------3----|-------------0----|-------------2----|-----2------------|
|------------------|------------------|------------------|------------------|
times that you laughed, all the times that you cried.
|-1-----------0----|------------------|-0-----------3----|------------------|
|------------------|------------------|-1----------------|------------------|
|------------------|------------------|------------------|------------------|
|-0----------------|------------------|------------------|------------------|
|-------------0----|------------------|------------------|------------------|
|------------------|---------5-\-\-\--|-1-----------3----|------------------|
You never expected love to leave you behind.
|-------1-----0----|---------0--------|-3-------3---1----|------------------|
|-----1------------|---------1--------|-3-------3--------|------------------|
|---2--------------|------------------|-------------3----|------------------|
|-0----------------|------------------|------------------|------------------|
|-------------0----|---------0--------|-0-------0--------|-------------8-7--|
|------------------|------------------|-------------1----|------------------|
Through the years I'll be more than a friend. I was
|---------6--------|------------------|-----1-------0----|-0----------------|
|---------6---8----|---------8-\-\-\--|-----1-------1----|-1----------------|
|-------------8----|---------8-\-\-\--|------------------|------------------|
|------------------|------------------|------------------|------------------|
|-------------6----|---------6-\-\-\--|-----3-------3----|-3----------------|
|-6----------------|------------------|------------------|------------------|
there from the start and I'll be here to the end.
****CHORUS****
F Dm
|-1----------------|------------------|-5----------------|------------------|
|-1----------------|------------------|-6----------------|------------------|
|-3----------------|------------------|------------------|------------------|
|------------------|------------------|-0----------------|------------------|
|------------------|------------------|------------------|------------------|
|-1----------------|------------------|------------------|------------------|
Do you know what love is ? Can you feel what love is? Do you
Am C
|-5----------------|------------------|-0----------------|-----5------------|
|-5----------------|------------------|-1----------------|------------------|
|------------------|------------------|------------------|------------------|
|------------------|------------------|------------------|-----5------------|
|-0----------------|------------------|-3----------------|-5-7-----7-5-3----|
|------------------|------------------|------------------|------------------|
know what love.... Do you know what love.... Love is
F Dm
|-1----------------|------------------|-5----------------|------------------|
|-1----------------|------------------|-6----------------|------------------|
|-3----------------|------------------|------------------|------------------|
|------------------|------------------|-0----------------|------------------|
|------------------|------------------|------------------|------------------|
|-1----------------|------------------|------------------|------------------|
deeper than emotion, comin' stronger than all devotion. Do you
Am C
|-5----------------|------------------|-0----------------|-----5------------|
|-5----------------|------------------|-1----------------|------------------|
|------------------|------------------|------------------|------------------|
|------------------|------------------|------------------|-----5------------|
|-0----------------|------------------|-3----------------|-5-7-----7-5-3----|
|------------------|------------------|------------------|------------------|
know what love.... Do you know what love.... Love is
Dm C A# D# G
|-5-------0--------|------------------|-3----------------|------------------|
|-6-------1--------|-3-------8---8----|-3----------------|------------------|
|------------------|-3-------8---8----|------------------|------------------|
|-0----------------|------------------|------------------|------------------|
|---------3--------|-1-------6---6----|------------------|------------------|
|------------------|------------------|-3----------------|------------------|
| deeper than emotion. [pause...]
|
|------------------|------------------|------------------|-8---8------------|
|------------------|------------------|------------------|-10--8------------|
|------------------|------------------|------------------|-------0-7-5---0--|
|------------------|------------------|------------------|------------------|
|------------------|------------------|------------------|------------------|
|------------------|------------------|------------------|------------------|
****VERSE 2****
C G Am
|-0----------------|-3---3-------0----|------------------|------------------|
|------------------|-3---3------------|------------------|------------------|
|------------------|------------------|------------------|------------------|
|------------------|------------------|------------------|------------------|
|-3----------------|-2---2-------0----|------------------|------------------|
|------------------|------------------|------------------|------------------|
| Those days are over, now it's time to carry on Now you
|
|------------------|------------------|------------------|------------------|
|------------------|------------------|------------------|------------------|
|-5----------------|-4---4-------5----|------------------|-----5---7-5------|
|------------------|------------------|------------------|-5-7---7-----5-7--|
|------------------|------------------|------------------|------------------|
|------------------|------------------|------------------|------------------|
Dm C F
|-5----------------|-0---0-------1----|------------------|------------------|
|------------------|------------------|------------------|------------------|
|------------------|-------------3----|------------------|------------------|
|-0----------------|-2---2------------|------------------|------------------|
|------------------|-3---3------------|------------------|------------------|
|------------------|-------------1----|------------------|------------------|
| know which road to choose. There
|
|------------------|------------------|------------------|------------------|
|------------------|------------------|------------------|------------------|
|-5----------------|------------------|---------5-5------|-(7)/9-5----------|
|------------------|------------------|-------------7-5--|------------------|
|------------------|------------------|------------------|------------------|
|------------------|------------------|------------------|------------------|
Am G C
|------------------|-----3------------|------------------|------------------|
|------------------|-----3------------|-------------5----|-6--5---------5---|
|------------------|------------------|-----------5------|-7--5---------5---|
|------------------|------------------|---------5--------|-----7-(5)/7--5---|
|-0----------------|-2---2-------3----|-----5-7----------|------------------|
|------------------|------------------|------------------|------------------|
| is no harder lesson learned than finding your way alone
|
|------------------|------------------|------------------|------------------|
|------------------|------------------|-10-10-10-10-8-8-8|-8----------------|
|------------------|------------------|------------------|---9-9-9-9--7--5h7|
|------------------|------------------|------------------|------------------|
|------------------|------------------|------------------|------------------|
|------------------|------------------|------------------|------------------|
F C A#
|------------------|-0---0------------|------------------|-------------3----|
|-6----------------|-------------3----|------------------|-----------3------|
|-5----------------|-------------3----|------------------|---------3--------|
|------------------|------------------|------------------|-----3-5----------|
|-5----------------|-3---3-------1----|------------------|------------------|
|-------------1----|------------------|------------------|------------------|
| So I'm reaching my hand out to you. And
|
|------------------|------------------|------------------|------------------|
|------------------|------------------|------------------|------------------|
|-5----------------|------------------|-------------5-2--|-5-2-(5)/7--5-----|
|------------------|------------------|------------------|------------------|
|------------------|------------------|------------------|------------------|
|------------------|------------------|------------------|------------------|
F Am Em F
|-------1-----0----|---------0--------|-3-------3---1----|------------------|
|-----1------------|---------1--------|-3-------3--------|------------------|
|---2--------------|------------------|-------------3----|------------------|
|-0----------------|------------------|------------------|------------------|
|-------------0----|---------0--------|-0-------0--------|-------------8-7--|
|------------------|------------------|-------------1----|------------------|
all of your life, I've been more than a friend I was
A# D# CaddF C
|---------6--------|------------------|-----1-------0----|-0----------------|
|-------6-----8----|---------8-\-\-\--|-----1-------1----|-1----------------|
|-----7-------8----|---------8-\-\-\--|------------------|------------------|
|------------------|------------------|------------------|------------------|
|-------------6----|---------6-\-\-\--|-----3-------3----|-3----------------|
|-6----------------|------------------|------------------|------------------|
there from the start, and I'll be here till the end.
****CHORUS****
F Dm
|-1----------------|------------------|-5----------------|------------------|
|-1----------------|------------------|-6----------------|------------------|
|-3----------------|------------------|------------------|------------------|
|------------------|------------------|-0----------------|------------------|
|------------------|------------------|------------------|------------------|
|-1----------------|------------------|------------------|------------------|
Do you know what love is ? Can you feel what love is? Do you
Am C
|-5----------------|------------------|-0----------------|-----5------------|
|-5----------------|------------------|-1----------------|------------------|
|------------------|------------------|------------------|------------------|
|------------------|------------------|------------------|-----5------------|
|-0----------------|------------------|-3----------------|-5-7-----7-5-3----|
|------------------|------------------|------------------|------------------|
know what love.... Do you know what love.... Love is
F Dm
|-1----------------|------------------|-5----------------|------------------|
|-1----------------|------------------|-6----------------|------------------|
|-3----------------|------------------|------------------|------------------|
|------------------|------------------|-0----------------|------------------|
|------------------|------------------|------------------|------------------|
|-1----------------|------------------|------------------|------------------|
deeper than emotion, comin' stronger than all devotion. Do you
Am C
|-5----------------|------------------|-0----------------|------------------|
|-5----------------|------------------|-1----------------|------------------|
|------------------|------------------|------------------|------------------|
|------------------|------------------|------------------|------------------|
|-0----------------|------------------|-3----------------|------------------|
|------------------|------------------|------------------|------------------|
know what love.... Do you know what love.... Love is
Dm C A# Am
|-1----------------|-0----------------|-6----------------|-5----------------|
|------------------|------------------|------------------|-5----------------|
|------------------|------------------|-7----------------|------------------|
|-0----------------|------------------|------------------|------------------|
|------------------|-3----------------|------------------|-0----------------|
|------------------|------------------|-6----------------|------------------|
I want to show you one love that's true.
A# Am GaddC
|-6----------------|-5----------------|-3----------------|---3--------------|
|------------------|-5----------------|-1----------------|-1----------------|
|-7----------------|------------------|---------------0--|------------------|
|------------------|------------------|-------------0----|------------------|
|------------------|-0----------------|------------------|------------------|
|-6----------------|------------------|-3----------------|------------------|
Won't you open your heart my love is for
G D ****SOLO**** Bm A
|-3----------------|------------------|------------------|------------------|
|-0----------------|------------------|------------------|------------------|
|------------------|------------------|---------7--------|(7)/11-7-9^9p7h9--|
|------------------|------------------|-7\0/7-------9-7--|------------------|
|------------------|------------------|------------------|------------------|
|-3----------------|------------------|------------------|------------------|
you....
G A D
|------------------|------------------|------------------|------------------|
|------------------|------------------|------------------|------------------|
|----7---9/(14)----|------------------|------------------|-------------7----|
|------------------|(7)/9--7----------|---------------7--|---------7-9------|
|------------------|---------(7)/9--7-|-7---5---5-7-9----|-7-5-7-9----------|
|------------------|------------------|-------7----------|------------------|
D Bm C
|------------------|------------10-10-|-----------|-------------------------|
|------------------|-----10-12--------|-----------|--10-12-10-12^12h10-13---|
|------------------|-9-11-------------|-----------|11-----------------------|
|---------9\(4)----|------------------|-----------|-------------------------|
|------------------|------------------|-----------|-------------------------|
|------------------|------------------|-----------|-------------------------|
G C G
|--------------------|----------------|------------------|------------------|
|-----13-12p13h12----|----------------|---10-12----------|---------12-------|
|---------------12-14|-11-------------|---------9-7------|-7-----------12---|
|--------------------|----12-12-------|---------------9--|-----7-9----------|
|--------------------|----------------|------------------|------------------|
|--------------------|----------------|------------------|------------------|
AaddD A
|------------------|----------/17-----|------------------|------------------|
|------------------|--------------/19-|-17---------------|----------17-\-\15|
|-14---------------|--------14--------|------------------|------------------|
|------------------|------------------|------------------|------------------|
|------------------|------------------|------------------|------------------|
|------------------|------------------|------------------|------------------|

|-2----------------|------------------|------------------|------------------|
|-3----------------|------------------|-3----------------|------------------|
|------------------|------------------|-4----------------|------------------|
|-0----------------|------------------|-4----------------|------------------|
|------------------|------------------|-2----------------|------------------|
|------------------|------------------|------------------|------------------|
Do you know what love is? Can you feel what love is? Do you
|-2----------------|------------------|------------------|------------------|
|-2----------------|------------------|------------------|------------------|
|-2----------------|------------------|------------------|------------------|
|-4----------------|------------------|------------------|------------------|
|------------------|------------------|------------------|------------------|
|------------------|------------------|------------------|------------------|
know what love is? [pause...]
****CHORUS x ???**** (played as above but 1/2 step higher, and with various
little guitar solo-type thingamajigs thrown in)




Другие песни исполнителя

Babble On
Revelation (табы)


Ваше мнение



Капча