Repeats are not always included.
Please listen to the song for further information.
H: Hammer-on
(x): Not really played (Release hammer-on)
\: Slide down
Verse changes between Verse 1, 2 and 3. Like this.
Intro : 1,1,1,3,1,3
1st Part: 1,2,1,3,Chorus
2nd Part: 1,2,1,3,Chorus
Bridge : 3,3,Chorus(2x)
Verse 1:
G|--------------------|--------------------|---------8-8-8-9--(8)-----|-------
-11-11-11-13\(9)------|
D|--------------------|--------------------|--------------------------|-------
----------------------|
A|-----------2--------|------1----2--------|--------------------------|-------
----------------------|
E|-4------------------|-4--------------4---|-0----------------------0-|-1-----
----------------------|
H H
Verse 2:
G|--------------------|--------------------|--------------------------|-------
-12-12-12-14\(9)------|
D|--------------------|--------------------|--------------------------|-------
----------------------|
A|-----------2--------|------1----2--------|---------------2----------|-------
----------------------|
E|-4------------------|-4--------------4---|-0----------------------0-|-1-----
----------------------|
H
Verse 3:
G|--------------------|--------------------|--------------------------|-------
----------------------|
D|--------------------|--------------------|--------------------------|-------
----------------------|
A|-----------2--------|------1----2--------|---------------2----------|-------
-----------2----------|
E|-4------------------|-4--------------4---|-0------------------------|-1-----
----------------------|
Chorus:
G|--------------------|--------------------|--------------------|-------------
-------|
D|--------------------|--------------------|--------------------|-------------
-------|
A|---------1-------2--|--------------------|---------1-------2--|-1-------1---
-------|
E|-4------------------|-2-------1-------0--|-4------------------|-------------
-------|
G|--------------------|--------------------|--------------------|-------------
-------|--------------------|
D|--------------------|--------------------|--------------------|-------------
-------|--------------------|
A|---------1-------2--|-2-------1----------|---------1-------2--|-2-------2---
-------|-2-------2----------|
E|-4------------------|-----------------4--|-4------------------|-------------
-------|--------------------|
RAIN (guitar)
[Riff]/x2
I'm alone [Riff]
Can't wait until I feel your rain
So unreal
Can't find another place of your rain
I believe
I still believe in your warm rain
I'm alone [Riff]
Can't sleep until I feel your rain F
How can I find a
Love, Faith and Trust inside of your rain F
So unreal,
Can't find another place of your rain
I believe
I still believe in your warm rain
So untrue
Help me to find through your warm rain
I send out my wishes a G
You gave me promises C G
Why don't you feel the same a G F
(I'm sad, I feel like a little child)
I send out my wishes a G
You gave me promises C G
Why don't you feel the same a G F
(I'm sad, I feel like a little child
Somebody left, there is no rain)
Oh no, I'm waiting a
How about your rain (how about your rain)? F
I can't believe
I still believe in your rain
Like in heaven
I can't wait until I feel your rain
So where's your life a
Who's living the rest of your life, I can't, I can't F
I can't live this life, I can't live this life
Cd ->
Rain (cd)
I can't see in your eyes a G
Can't change it, no more tries C G
Leave everyone with a smile a G F
(And you're sad, you feel like a little child)
I can't see in your eyes a G
Can't change it, no more tries C G
Leave everyone with a smile a G F
(And you're sad, you feel like a little child
Somebody's left there is no rain)
A F
Na na na... a F
Yeeeeah, a G
And you set me free C G
O baby, a G
And you set your feel like a little child F
I send out my wishes a G
You gave me promises C G
Why don't you, why don't you a G
Why don't you, why don't you feel the same F
(And you set your feel like a little child
Somebody left, there is no rain)
a
[Riff]
a* F
[--------3--------------------1--------1--]
[-----1-----------------------------------]
[--2--------------------3--3-----3--3-----]
[-----------------------3--3-----3--3-----]
[--0--------0--2--3--2--1--1-----1--1-----]
[-----------------------------------------]
A*: 002213




Ваше мнение



Капча