Artist: Guano Apes
Song: Quietly
Album: Walking on a thin line
Tab: Adrian Kmicic ([email protected])
*Guitar Tab*
Tuning: Standard
*Order*
Guitar 1 | Guitar 2
---------|----------
Intro x9 |
Intro x4 |Verse x2
Chorusx2 |Chorus x2
Intro x4 |Chords x2
Intro x4 |Verse x2
Chorusx4 |Chorus x4
Rest
Interlude
Chorusx4 |Chorus x4
Outro x1 |
*Legend*
~ Let ring
PM palm mute
Intro/Verse (w/distortion)
E|-----0-0-------0-0-------0-0-------0-0---|
B|--5--4-4----5--4-4----5--4-4----5--4-4---|
G|---------------------------------------o-|
D|---------------------------------------o-|
A|-----------------------------------------|
E|-----------------------------------------|
Verse
E|---------------------------------------------------------------------|
B|---------------------------------------------------------------------|
G|---------------------------------------------------------------------|
D|-9-9-9-9-9-9-9-9-1111111111111111--6-6-6-6-6-6-6-6--6-6-6-6-6-6-6-6--|
A|-7-7-7-7-7-7-7-7--9-9-9-9-9-9-9-9--4-4-4-4-4-4-4-4--4-4-4-4-4-4-4-4--|
E|---------------------------------------------------------------------|
PM ..................................................................
Chorus (w/distortion)
E|---------------------------------------------------------------------|
B|---------------------------------------------------------------------|
G|-6-6-6-6-6-6-6-6--9-9-9-9-9-9-9-9--4-4-4-4-4-4-4-4--6-6-6-6-6-6-6-6--|
D|-6-6-6-6-6-6-6-6--9-9-9-9-9-9-9-9--4-4-4-4-4-4-4-4--6-6-6-6-6-6-6-6--|
A|-4-4-4-4-4-4-4-4--7-7-7-7-7-7-7-7--2-2-2-2-2-2-2-2--4-4-4-4-4-4-4-4--|
E|-4-4-4-4-4-4-4-4-----------------------------------------------------|
Chords (play with the bass)
E|----------------------------------|
B|----------------------------------|
G|---9~----11~-----6~---------------|
D|---9~----11~-----6~---------------|
A|---7~-----9~-----4~---------------|
E|----------------------------------|
Interlude (fade in...)
E------------4--------------------4----------|
B---5--4--5-----5--4--5--5--4--5-----5--4--5-|
G--------------------------------------------|
D--------------------------------------------|
A--------------------------------------------|
E--------------------------------------------|
Outro
E|-------------|
B|-------------|
G|---6~--------|
D|---6~--------|
A|---4~--------|
E|---4~--------|
great song, easy to play... very catchy. enjoi..
Adrian..
Please rate it!




Ваше мнение



Капча