Standart Tuning eadgbe
Intro
e---11----9----------------11----9----12--11---------
b-------9------12-----9--------9--------------12-----
g------------------11--------------------------------
d----------------------------------------------------
a----------------------------------------------------
e----------------------------------------------------
Verses
e-----------------------------------------------------------------
b---999999--999999--999999---777777-or-14-12
g---888888--888888--888888---666666-or-13-11 the same rythm X-times
d---666666--666666--666666---444444-or-11-9
a-----------------------------------------------------------------
e-----------------------------------------------------------------
Pre Chorus
3x 3x
¦------------¦ ¦-----------¦ with Distortion
e------------I----------I-----------I----------------------------------------
b------------I----------I-----------I----------------------------------------
g------------I--4--4--4-I-----------I----------------------------------------
d--6-6--7-7--I--4--4--4-I-6-6--7-7--I---11-11111111--------------------------
a--6-6--7-7--I--2--2--2-I-6-6--7-7--I---11-11111111--------------------------
e--4-4--5-5--I----------I-4-4--5-5--I---9--9-9-9-9---------------------------
Chorus
3x
¦--------------¦--
d--11--11--7--7--- --9-x-9-9-x-9
a--11--11--7--7---then--9-x-9-9-x-9 2x
e--7 --7 --5--5--- --7-x-7-7-x-7
mitro 1
e---------------- ----9-9-
b--9-8h9p8h9p---- 3x then ----9-9-
g-------------11h --------
mitro 2
e-------------------------------
b-------------------------------
g---6-----4---------------------
d---6--7--4---------------------
a---4--7--2---------------------
e---4--5--2---------------------
outro
3x 3x
¦---------------¦ ¦-------------¦
e----------------------------------------------------------------
b----------------------------------------------------------------
g--666666----------444444---666666-------------------------------
d--666666-777777---444444---666666-777777------------------------
a--444444-777777---222222---444444-777777------------------------
e---------555555---222222----------555555------------------------
Intro
verses 3x
pre chorus
chorus 2x
mitro 1 3x
verses 1x
pre chorus
chorus 2x
intro
mitro 1. 3x
mitro 2.
chorus 2x
outro
mitro 2.
It^s my first tab. when you have question e-mail me: [email protected]




Ваше мнение



Капча