Never Born ? Guano Apes
Intro:
E |-------------------4------------------4---|---------------4-------------------4---||
B |--------3---4---------------3---4---------|-----3---4---------------3---4---------||repeat 6 times,
Cm
G |------------------------------------------|---------------------------------------|| Cm
D |----3-------------------6-----------------|-5-------------------------------------||
A |------------------------------------------|---------------------6-----------------||
E |------------------------------------------|---------------------------------------||
f d dis gis gis d dis gis g d dis gis dis d dis gis
E |-----------------------------------|-----------------------------|---------------------------|--------------------------|
B |------4----1------------------4----|1------------4---1-----------|-----6----3------------6---|--3--------6----3---------|
G |--0------------0-------------------|-------0----------------0----|-----------------0---------|--------0--------------0--|
D |-----------------------------------|-----------------------------|---------------------------|--------------------------|
A |-----------------------------------|-----------------------------|---------------------------|--------------------------|
E |-----------------------------------|-----------------------------|---------------------------|--------------------------|
g dis c g dis c g dis c g f d g f d
g f d g
E |-------------------------------|--------------------------------||
B |------4----1--------------4----|1----------------4---1----------||
G |--0------------0---------------|-------0--------------------0---||
D |-------------------------------|--------------------------------||
A |-------------------------------|--------------------------------||
E |-------------------------------|--------------------------------||
g dis c g dis c g dis c g
?Couplet?
E |------------8------------------8--|----------8--------------6--||
B |----- ---8---------------8---------|------8-------------8------||
G |---8---------------8--------------|---8-------------8----------|| 4 x no singing
D |-----------------------------------|---------------------------|| then entire couplet again
A |-----------------------------------|---------------------------|| then Cm...?
E |-----------------------------------|---------------------------||
dis g c dis g c dis g c dis g ais
Refrein: ||: Fm(power) Gis(power) | Gm (power) Dis (power) :||
Bridge: just Cm
For the exact sequence listen to the song




Ваше мнение



Капча