this song is very easy to play
e ----------|---------------------------------
h ----------|---------------------------------
g ----------|---------------------------------
d ---x5-x4--|--444-4444444444-444-444444-45---
A ---x5-x4--|--444-4444444444-444-444444-45---
E ---x3-x2--|--222-2222222222-222-222222-23---
---------------------------------|
---------------------------------|
---------------------------------|
---444-4444444444-444-44-x5-x4---| x 2
---444-4444444444-444-44-x5-x4---|
---222-2222222222-222-22-x3-x2---|
#verse 1#
e ---------------|
h ---------------|
g ---3-4-4-3-----|
d -----------1---| x 8
A ---------------|
E ---------------|
I got the snowboard under my feet.......

#verse 2#
x 4 x 2
e --------------------|--------------------|------
h --------------------|--------------------|------
g --------------------|--------------------|------
d --------------------|--7-7-7-7-7-7-------|------
A ---9-9-9-9-9-9-7-7--|--------------7-7---|------
E --------------------|--------------------|------
and now i'm flying.......
----------------------|
----------------------|
----------------------|
----------------------|
---9-9-9-9-9-9-----9--|
---------------7-7----|
#chorus# = #intro#
#verse 1#
#verse 2#
#chorus#
#chorus#




Ваше мнение



Капча