Artist: Guano apes
Song: Lords of the boards
Tuning: Standard (E,A,D,G,B,e)
[email protected]
This is a cool song and there was no tab for it, so i tabbed it. Have fun!
Intro, pre chorus and outro
-7777--5555--7777--10101010--7777--5555--7777-
-7777--5555--7777--10101010--7777--5555--7777-
----------------------------------------------
----------------------------------------------
----------------------------------------------
----------------------------------------------
Riff 1 and Chorus
---------------------------------------------- |
---------------------------------------------- |
---------------------------------------------- |
-0-5---0-4---4-0-4--0-4-0-4-0-4--0-4-0-4-0-4-- |
-0-5---0-4---4-0-4--0-4-0-4-0-4--0-4-0-4-0-4-- |
-0-3---0-2---2-0-2--0-2-0-2-0-2--0-2-0-2-0-2-- |
| x2
---------------------------------------------- |
---------------------------------------------- |
-------------------------2nd time finish with- |
-0-4-0-4-0-4-0-4-5------|-0-4-0-4-5-0-4------- |
-0-4-0-4-0-4-0-4-5------|-0-4-0-4-5-0-4------- |
-0-2-0-2-0-2-0-2-3------|-0-2-0-2-3-0-2------- |
Riff 2
----------------------------------------------
----------------------------------------------
----------------------------------------------
---------------------------------------------- palm muted
----6---7-7-6---------------------------------
-4---4-------4-4------------------------------
That's all. Listen to the song to find the rythm. Not hard at all.




Ваше мнение



Капча