Intro:
e-----------------------------
b-----------------------------
g|------0------------0--------------------
d-----------------------------
a|----2----3p2-2(h)3---3------------------
e|--0-------------------------------------
e-----------------------------
b-----------------------------
g|------0------------0--------------------
d-----------------------------
a|----2----3p2-2(h)3---3------------------
e|--0-------------------------------------
e----------------------------
b----------------------------
g|------0--------------------------------
d----------------------------
a|--3-2----3-----------------------------
e----------------------------
e-----0----------------------
b-----3----------------------
g|--0-------0-----0----------------------
d----------------------------
a|----3-3-2---3--------------------------
e----------------------------
Про "h" я не уверен, но попробуйте играть так.
Эта же тема, как и intro, идет до припева.
В припеве что-то вроде этого:
e----------------------------
b|---3-3-3-3-----------------------------
g|---0-0-0-0-----------------------------
d|---0-0-0-0-----------------------------
a|---3-3-3-3-----------------------------
e----------------------------
После второго припева и проигрыша идет примерно так:
e----------------------------
b----------------------------
g|--5--4----4--5---4--5-----4--5---------
d|--5--4----4--5---4--5-----4--5---------
a|--3--2--0-2--3---2--3--0--2--3---------
e----------------------------
e------------0----------------
b------------2----------------
g|--5--4----4--5---4--5--2----------------
d|--5--4----4--5---4--5--2----------------
a|--3--2--0-2--3---2--3--0----------------
e-----------------------------
Don’t give me names
You’ve got it all,you took it all away
Drive me insane
Who’d come down to earth, releasing me
Healing my wounds
Why don’t you close the door when you’re leaving me
now you run
running all the way back to me again
It´s not to end a shame
to fight an endless lie
I’m not to play your game
I won’t be on your side
Found a way
to reach myself again but all I saw was shame
Drive me away
’cos something deep in me waiting to escape
you think you know me
so why don’t you close the door when you’re here with me
I’m here to end the game
I’m living in a lie
it’s hard to give the same
I won’t be on your side,
won´t be on your side
I loved you a lie
to need you a lie
I leave you a lie...
I´m live,I´m living in a lie...
I’m here to end the game
I’m living in a lie
it’s hard to give the same
I won’t be on your side,
won´t be on your side
I loved you a lie
to need you a lie
I leave you a lie...




Ваше мнение



Капча