Repeats are not always included.
Please liste to the song.

main pattern:
G--------------|--------------
A--------------|----------3---
E--0---2-3-----|--0---2-3-----
B---------1----|--------------

Second pattern (I'm not sure)
G--------------|---------------0-2-
A--------------|---------3---3-----
E--0---2-3-----|--0---2-3----------
B---------1----|-------------------

It's my first tab
Mail corrections please to [email protected]




Ваше мнение



Капча