Intro:
1----------------------
2----------------------
3----------------------
4|10-10-10-10--6----8-8-8-8--3--3--
5|10-10-10-10--6----8-8-8-8--5--3--
6|-8--8--8--8--4----6-6-6-6--5--1--
---------------------------|
---------------------------|
---------------------------| x2
--6-6-6-6---3----4---------|
--6-6-6-6---3----4---------|
--4-4-4-4---1----2---------|
Куплеты:
1 половина куплета играется на басе (признаюсь честно
я его не знаю), а 2 половина с электрогитарой и басом:
1--------------------
2--------------------
3--------------------
4|10---6---8---5---6---3-----4---
5|10---6---8---5---6---3-----4---
6|-8---4---6---3---4---1-----2---
---------------------------------|
---------------------------------|
--10---6---8---5---6---3-----4---|
--10---6---8---5---6---3-----4---|
---8---4---6---3---4---1-----2---|
---------------------------------|
Припев:
1 часть припева:
1------------------
2------------------
3------------------
4|10-10--6-6-----8-8--3-3------
5|10-10--6-6-----8-8--5-5------
6|-8--8--4-4-----6-6--5-5------
---------------------------|
---------------------------|
---------------------------|
---6-6---3-3-----4---------|
---6-6---3-3-----4---------|
---4-4---1-1-----2---------|
2 часть припева:
1------------------
2------------------
3|-10-10--6-6----8-8--3-3------
4|-10-10--6-6----8-8--5-5------
5|--8--8--4-4----6-6--5-5------
6------------------
--------------------------|
--------------------------|
---6-6---3-3-----4--------|
---6-6---3-3-----4--------|
---4-4---1-1-----2--------|
--------------------------|
Сам текст песни:
Куплет 1:
1 часть:
Winter´s cityside
Crystal bits of snowflakes
All around my head and in the wind
I had no illusions
That I´d ever find a glimpse
Of summer´s heatwaves in your eyes
2 часть:
You did what you did to me
Now it´s history I see
Here´s my comeback on the road again
Things will happen while they can
I will wait here fore my man tonight
It´s easy when you´re big in Japan

Припев:
1 часть:
You´re big in Japan
You´re big in Ja-pan
You´re big in Japan
Insale
2 часть:
You´re big in Japan
Then I´ll sleep by your side all through the night
Big in Japan
It´s easy to be...

Куплет 2:
1 часть
Neon on my skin,passing silhouettes
Of strange illuminated mannequins
Shall I stay here at the zoo
Or should I go and change my point of view
For other ugly scenes
2 часть:
You did what you did to me
Now it´s history
I see
Things will happen while they can
I will wait here for my man tonight
It´s easy when you big in Japan




Ваше мнение



Капча