GRIP INC.
'War Between One'
from the album 'Nemesis'
transcribed by
Corey B. ([email protected])
find more metal tablatures at
http://venus.spaceports.com/~metaltab/

------------------------------------------------------------------------------
------------------------------------------------------------------------------
------------------------------------------------------------------------------
--7-7-7---777-----------------------------------------------------------------
--5-5-5-0-4540----------------------------------------------------------------
------------------------------------------------------------------------------

------------------------------------------------------------------------------
------------------------------------------------------------------------------
------------------------------------------------------------------------------
------------------------------------------------------------------------------
--55----------------5---5---6-5h6p55-------------------5---5---6-5h6p55-------
-----00000000000000---0---0---------000000000000000000---0--0-----------------

------------------------------------------------------------------------------
------------------------------------------------------------------------------
----------------------------------5^5^5^5^5^5^--------------------------------
-77777777-77777777-7777777-77777----------------------------------------------
-5555555505555555505555555055555----------------------------------------------
------------------------------------------------------------------------------
this riff im not very sure of try it yourself but it sounds alright
------------------------------------------------------------------------------
------------------------------------------------------------------------------
------------------------------------------------------------------------------
--7757-------757--------------------------------------------------------------
--5535-6430--535-6430---------------------------------------------------------
-------6430------6430---------------------------------------------------------





Ваше мнение



Капча