m: "Martin"
Subject: g/grip_inc/rusty_nail.tab
Date: Wed, 4 Mar 1998 01:09:28 +0100

Grip, Inc. - Rusty Nail (Nemesis) [Waldemar Sorychta]
transcribed by Sparhawk
[intro]
* drums *
[main riff] (dots - Palm Muting)
a - artificial harmony
. . . . . . a a . . . . . . . . . .
|---------------------------------------------------------------|
|---------------------------------------------------------------|
|-----------------------9-9-------------------------------------|
|---------------------------------------------------------------|
|-7-7-------7-----7-------------8-8-------8-----8-----------8---|
|-----0-0-0---0-0---0-7-----0-0-----0-0-0---0-0---0-7-0-8-0-----|
Law is easy to find, justice hard to achieve...
. . . . . . a a . . . . . . . . . . . . .
|---------------------------------------------------------------|
|---------------------------------------------------------------|
|-----------------------9-9-------------------------------------|
|---------------------------------------------------------------|
|-7-7-------7-----7-------------8-8-------8---8-------------8-8-|
|-----0-0-0---0-0---0-7-----0-0-----0-0-0---0---0-8-0-8-0-0-----|
..conversations always failing
Look straigh ahead, see only that is real
Stop the endless search for judgment
Cirscumstances revolve oppurtunities rap defying
Stabbing pressures of decision
Like stepping hard upon rusty nails
Disease flows without resistance
[Chorus]
|------------------------------------------------------|
|------------------------------------------------------|
|------------------------------------------------------|
|-7b7b--7b7b7b7b7b--8b8b--8b8b8b8b8b--9b9b--9b9b9b9b9b-|
|-5b5b--5b5b5b5b5b--6b6b--6b6b6b6b6b--7b7b--7b7b7b7b7b-|
|------------------------------------------------------|
|--------------------------|
|--------------------------|
|--------------------------|
|-10b10b--10b10b10b10b10b--|
|-8b-8b---8b-8b-8b-8b-8b---|
|--------------------------|
See pale skin turning red
Provocation rules throughout
Burning with desire
Watching others fall away
Concealed always to stay
Behind the eyes of insanity
---
No compromise, the poison flows down freely
Bringing naked brutality
The will to command constant everlasting
Endless battle for recognition
[this is the beginning of the solo ]
|---------------------------------------------15b15b| etc.
|------------------------------------12-------------|
|-14~~~~~\12-14-15-13~~~~~\13-12-13-----------------|
|---------------------------------------------------|
|---------------------------------------------------|
|---------------------------------------------------|
---
Any comments, questions and suggests write to Sparhawk : [email protected]
Visit Grip Inc. site : http://members.xoom.com/gripinc/





Ваше мнение



Капча