Grip Inc.
Portrait of Henry
From the album Nemesis
Copyright 1997 Steamhammer
Transcribed by Chris ([email protected])
October 1998, Version 1.1
Standard E tuning
Artificial
Riff A Harmonic(AH) AH 4x Riff B
E---|--------------------------------------------------||---------------
B---|--------------------------------------------------||---------------
G---|-------------------------------------------------*||---------------
D---|-------------------------------------------------*||---------------
A---|--3--3--3--3--2--2-----4h5p4--5~~~--3h5p3--5~~~---||--------3------
E---|--1--1--1--1--0--0--------------------------------||--------1------
. . . . . . .
Palm Muting
4x Riff C 4x Riff D
E---------------------------------------||----------------||-------
B---------------------------------------||----------------||-------
G--------------------------------------*||---------------*||-------
D--------------------------------------*||---------------*||-------
A---3--3--3--2--2--3-5--3-5--3-5--3-5---||--3-3-3-3-2-2---||--3----
E---1--1--1--0--0--1/3--1/3--1/3--1/3---||--1-1-1-1-0-0---||--1----
. . . . . . . . . . . .
AH AH Riff E
E--------------------------------------------|--------------------------
B--------------------------------------------|--------------------------
G--------------------------------------------|--------------------------
D--------------------------------------------|--------------------------
A---3--3--3--2--2--6h7p6--7~~~--5h7p5--7~~~--|--3--3--3--3--2--2--------
E---1--1--1--0--0----------------------------|--1--1--1--1--0--0--------
. . . . . . . . . . .
AH AH Ending AH AH
E----------------------------|---------------------------------------||
B----------------------------|---------------------------------------||
G----------------------------|------------------------------------ --||
D--4h5p4--5~~~--3h5p3--5~~~--|---------------------------------------||
A----------------------------|--4h5p4--5~~~--3h5p3--5~~~-3-3-3-3-2-2-||
E----------------------------|---------------------------1-1-1-1-0-0-||
. . . . .
Song Structure:
Riff A (4X)
Riff B (4X)
Riff C (4X)
Riff C (4X) with a different timing
Riff A (4X)
Riff B (4X)
Riff C (4x)
Riff A (2X)
Riff D (1X)
Riff E (1X)
Riff B (4X)
Riff C (4X)
Ending (1X)
Lyrics:
Carnage, at the flick of the wrist
Oh! Mortal Spirit, disdain never discriminates
To dismember is natural
To annihilate is habitual
Every step taken
Ushers in dread
Hunger forever calling
Deeper in to ugliness
Serene in debauchery
Маnпs caricature is his fate
Monster within
Turns inside out
Only to face
Face itself
Face itself
Face itself
Face itself
Face itself
Face itself
Primitive, barbarian, reprobate, born savage
(Lyrics: Gus Chambers Music: Dave Lombardo, Waldemar Sorychta)
========================================================================
== TABLATURE EXPLANATION ==
========================================================================
---------- ---------- ----t---
----5h8--- Hammeron ----(8)--- Ghost ----6--- Tap
---------- ---------- Note --------
----5p8--- Pulloff ---------- --------
---------- ---------- -----p--
----5/8--- Slide Up -----x---- Dead -----7-- Pop
---------- ---------- Note --s-----
----58--- Slide Down ---------- --5----- Slap
---------- ||------|| Repeat --------
----5~~~-- Vibrato ||*----*|| ---5^--- Bend
---------- ||*----*|| --------
---------- ||------|| --------
---------- ---------- --------
-4:------- Time ---------- --------
-4:------- Signature ---------- --------
---------- ---------- --------





Ваше мнение



Капча