Grip, Inc. - Guilty Of Innocence (Power Of Inner Strength)
[Waldemar Sorychta]
transcribed by Sparhawk - [email protected]
Grip Inc website : http://www.geocities.com/SunsetStrip/Alley/8977
P.M. - Palm Muting
[Riff A]
|---------------------------------|
|---------------------------------|
|---------------------------------|
|-56-6-6-6-6-6-6-56-6-6-------5-|
|-34-4-4-5-5-5-5-34-4-4-3h4-3---|
|---------------------------------|
(2x)
P.M.===============================================================
|-----------------------------------------------------------------|
|-----------------------------------------------------------------|
|-----------------------------------------------------------------|
|-----------------------------5-7-----------------------------5-7-|
|-----7-7-----8-8-----7-7-------------7-7-----8-8-----7-7---------|
|-0-------0-------0-------0-------0-------0-------0-------0-------|
P.M.===============================================================
|-----------------------------------------------------------------|
|-----------------------------------------------------------------|
|-----------------------------------------------------------------|
|-----------------------------5-7-----------------------------5-7-|
|-----7-7-----8-8-----7-7-------------7-7-----8-8-----7-7---------|
|-0-------0-------0----0--0-0-----0-0--0--0-0--0--0-0--0--0-0--0--|
Guil-ty of innocence...
|-----------------------------------|
|-----------------------------7-9---|
|-----------------------------5-7---|
|-9p7-9p7---10-10---9p7-9p7---------|
|-7---7-----8--8----7---7-----------|
|-----------------------------------|
[Riff A]
[main riff]
P.M.===============================================================
|-----------------------------------------------------------------|
|-----------------------------------------------------------------|
|-----------------------------------------------------------------|
|-----------------------------5-7-----------------------------5-7-|
|-----7-7-----8-8-----7-7-------------7-7-----8-8-----7-7---------|
|-0----0--0-0--0--0-0--0--0-0-----0-0--0--0-0--0--0-0--0--0-0--0--|
Born to the plague of fools
Intent on breaking all the rules
Terror crash against the skin mixing of blood
Flesh tempted against nature
Fear drips like water on glass
|-----------------------------------|
|-----------------------------7-9---|
|-----------------------------5-7---|
|-9p7-9p7---10-10---9p7-9p7---------|
|-7---7-----8--8----7---7-----------|
|-----------------------------------|
Born
In-bred
Born
In-bred
P.M==================================
|-----------------------------------|
|-----------------------------------|
|-----------------------------------|
|-----------------------------------|
|-2-2-2-2---2-2-2---2-2-----2---2---|
|-0-0-0-0---0-0-0---0-0-----0---0---|
[main riff]
Incest born, unnatural caresses
The future screams a clear message
black immaginations
Oppression tears away the heart and soul
Born, in-bred, born, in-bred
Midnight strikes, hunters prowl
Seeking which is forbidden
In true convict style idulgence wins
So begins mutilation
No battle was fought
The work of the beast unfolds
Keep the secret close or die
Guilty of innocence, guilty of innocence
Pure perversion
Truth kept, tightly wrapped
Shrouded in, devils breath
Trembling, twisted, trapped
The smell of torment
Fills the room
So still, deathly silence
The victims future crumbles
--- cut here ---





Ваше мнение



Капча