e: Wed, 4 Mar 1998 01:11:24 +0100
From: Martin
Subject: TAB: Code Of Silence by Grip Inc.
Grip Inc. - Code Of Silence (Nemesis)
[Waldemar Sorychta]
transcribed by Sparhawk
PM - Palm Muting (dots)
[Intro] - 2 times
let ring
|-------------------------------------|
|-------------------------------------|
|-----------------4-------------------|
|-5-----4-1---------------3-----------|
|---------------------------1---------|
|-------------------------------------|
[Main Riff] - 2 times
distortion
|-------------------------------------|
|-------------------------------------|
|------------------4------------------|
|-7-----6-3--------3------3-2---------|
|-5-----4-1---------------1-0---------|
|-------------------------------------|
{ The silence grows loud, echoing through the halls
abandoned by our protectors
No effort to serve, protect, heartless tunes beat
swirling behind badge and gun }
1st guitar - 2 times
distortion
|-------------------------------------|
|-------------------------------------|
|------------------4------------------|
|-7-----6-3--------3------3-2---------|
|-5-----4-1---------------1-0---------|
|-------------------------------------|
2nd guitar
|-------------------------------------|
|-------------------------------------|
|-7-7-7-7-7-7-7-7-7-7-7-7-7-7-7-7-7-7-|
|-------------------------------------|
|-------------------------------------|
|-------------------------------------|
[Riff 2] - 4 times without 2nd guitar
PM . . . . . . . . . . . . . . . . . . . .
|-----------------------------------------------------------------|
|---------------------------------------------6-----6-----6---6---|
|-5-----5-----5-----5-----5---5---5-----5-----6-----6-----5---5---|
|-----------------------------------------------------------------|
|---7-7---7-7---7-7---7-7---7---7---7-7---7-7---7-7---7-7---7---7-|
|-----------------------------------------------------------------|
{ Alegiance to enwritten law
Depravation shut away }
2nd guitar - listen to this part for a good timing
|-----------------------------------------------------------------|
|--------17----------17------------17---------17----17----17---17-|
|-----------------------------------------------------------------|
|---------------------------------------14--------------14---14---|
|-----------------------------------------------------------------|
|-----------------------------------------------------------------|
{ Code... of silence
Code... of silence }
[Riff 3] - 4 times
distortion
|-----------------------------------------------------------------|
|-----------------------------------------------------------------|
|-9-9-9-9-9-9-9-9-3-3-3-3-4-4-4-4-8-8-8-8-8-8-8-8-5-5-5-5-4-4-4-4-|
|-9-9-9-9-9-9-9-9-3-3-3-3-4-4-4-4-8-8-8-8-8-8-8-8-5-5-5-5-4-4-4-4-|
|-7-7-7-7-7-7-7-7-1-1-1-1-2-2-2-2-6-6-6-6-6-6-6-6-3-3-3-3-2-2-2-2-|
|-----------------------------------------------------------------|
[Riff 4] - 4 times
PM . . . . . . . . . . . . . . . . . . . .
|-----------------------------------------------------------------|
|-----------------------------------------------------------------|
|-----------------------------------------------------------------|
|-9-------10--9-----7---9-----------------------------------------|
|-7-------8---7-----5---7-----------------------------------------|
|-------------------------0-0-0-0-0-0-0-0-0-0-0-0-0-0-0-0-0-0-0-0-|
{ Bodies beaten and bloody
No chance of innocence
No effort to step forward
The silence grows louder... }
[Riff 3]
---
Any comments, questions and suggests write to Sparhawk : [email protected]
Visit Grip Inc. site : http://members.xoom.com/gripinc/





Ваше мнение



Капча