Artist: grinspoon
Album: easy
Tabbed by: pix
As with most grinspoon songs, this one is played using drop d tuning
Intro & verse: play this through a few times
--------------------------------------------------------------------|
--------------------------------------------------------------------|
--------------------------------------------------------------------|
--------------------------------------------------------------------|
-7-7-5-7-5------7-5-7-9-5--0-2-x-x-x--------------------------------|
-----------0-2-------------0-2-x-x-x--------------------------------|
Pre chorus:
--------------------------------------------------------------------|
--------------------------------------------------------------------|
--------------------------------------------------------------------|
---------------------------------------2-2-2-2-2-2------------------|
-7-7-5-7-5------7-5-7-9-5--0-2-x-x-x---2-2-2-2-2-2------------------|
-----------0-2-------------0-2-x-x-x---2-2-2-2-2-2------------------|
Chorus:
--------------------------------------------------------------------|
------------------------------5-7-5-3-------------------------------|
-11-11-11--7--7-7---2--2-2--2---------------------------------------|
--9--9-9---5--5-5---0--0-0------------------------------------------|
--9--9-9---5--5-5---0--0-0------------------------------------------|
--9--9-9---5--5-5---0--0-0------------------------------------------|
Thats pretty much the whole song, i'm pretty sure its correct




Ваше мнение



Капча