Drop D Tuning
Intro
-----------------------------------------------------------
-----------------------------------------------------------
-0-0-5-0-7-0--------5-0-7-0---------5-0-4-5-5-----5-5-5-4-0
-------------0--------------0---2-2-----------3-3----------
----------------3-3----------------------------------------
-----------------------------------------------------------
-----------------------------------------------------------
-----------------------------------------------------------
-0-0-5-0-7-0---------3-3-3-2-0-----5-5-5--5-5-5-5----------
-------------0---------------------5-5-5--5-5-5-5----------
----------------1-1----------------3-3-3--3-3-3-3----------
-----------------------------------------------------------

-----------------------------------------------------------
-----------------------------------------------------------
-0-0-5-0-7-0--------5-0-7-0---------5-0-4-5-5-----5-5-5-4-0
-------------0--------------0---2-2-----------3-3----------
----------------3-3----------------------------------------
-----------------------------------------------------------
-----------------------------------------------------------
-----------------------------------------------------------
-0-0-5-0-7-0---------3-3-3-2-0-----5-5-5--5-5-5-5----------
-------------0---------------------5-5-5--5-5-5-5----------
----------------1-1----------------3-3-3--3-3-3-3----------
-----------------------------------------------------------
Verse
-----------------------------------------------------------
-----------------------------------------------------------
-----------3-3-3-3-3-2--------3-3-3-3-2-3-5----------------
-3-5-5-5----------------3-3-3-----------------X8------------
-3-5-5-5----------------3-3-3------------------------------
-3-5-5-5----------------3-3-3------------------------------

-----------------------------------------------------------
-----------------------------------------------------------
-----------------------------------------------------------
-0-0-0--0-0-0--2-2-2--2-2-2--3-3-3--3-3-3--3-3-3--3-3-3----
-0-0-0--0-0-0--2-2-2--2-2-2--3-3-3--3-3-3--3-3-3--3-3-3-X2-
-0-0-0--0-0-0--2-2-2--2-2-2--3-3-3--3-3-3--3-3-3--3-3-3----
Chorus
-----------------------------------------------------------
-----------------------------------------------------------
--------------5-5-5--5-5-5--------------5-5-5--5-5-5-------
-5-5-5--5-5-5-5-5-5--5-5-5-2-2-2--2-2-2-5-5-5--5-5-5-------
-5-5-5--5-5-5-3-3-3--3-3-3-2-2-2--2-2-2-3-3-3--3-3-3-------
-5-5-5--5-5-5--------------2-2-2--2-2-2--------------------
-----------------------------------------------------------
-----------------------------------------------------------
-----------------------------5-5-5--5-5-5------------------
-5-5-5--5-5-5--1-1-1--1-1-1--5-5-5--5-5-5--3-5-X2----------
-5-5-5--5-5-5--1-1-1--1-1-1--3-3-3--3-3-3--3-5-------------
-5-5-5--5-5-5--1-1-1--1-1-1----------------3-5-------------
Verse
-----------------------------------------------------------
-----------------------------------------------------------
-----------3-3-3-3-3-2--------3-3-3-3-2-3-5----------------
-3-5-5-5----------------3-3-3-----------------X4------------
-3-5-5-5----------------3-3-3------------------------------
-3-5-5-5----------------3-3-3------------------------------

-----------------------------------------------------------
-----------------------------------------------------------
-----------------------------------------------------------
-0-0-0--0-0-0--2-2-2--2-2-2--3-3-3--3-3-3--3-3-3--3-3-3----
-0-0-0--0-0-0--2-2-2--2-2-2--3-3-3--3-3-3--3-3-3--3-3-3-X2-
-0-0-0--0-0-0--2-2-2--2-2-2--3-3-3--3-3-3--3-3-3--3-3-3----
Chorus
-----------------------------------------------------------
-----------------------------------------------------------
--------------5-5-5--5-5-5--------------5-5-5--5-5-5-------
-5-5-5--5-5-5-5-5-5--5-5-5-2-2-2--2-2-2-5-5-5--5-5-5-------
-5-5-5--5-5-5-3-3-3--3-3-3-2-2-2--2-2-2-3-3-3--3-3-3-------
-5-5-5--5-5-5--------------2-2-2--2-2-2--------------------
-----------------------------------------------------------
-----------------------------------------------------------
-----------------------------5-5-5--5-5-5------------------
-5-5-5--5-5-5--1-1-1--1-1-1--5-5-5--5-5-5--3-5-X2----------
-5-5-5--5-5-5--1-1-1--1-1-1--3-3-3--3-3-3--3-5-------------
-5-5-5--5-5-5--1-1-1--1-1-1----------------3-5-------------
-----------------------------------------------------------
-----------------------------------------------------------
-------------5-5-5------------------5-----3-3--5-6---------
-5-5-5-------5-5-5-X4----5-5-5------5-X9--3-3--5-6---------
-5-5-5-X4----3-3-3-------5-5-5-X4---3-----1-1--3-4---------
-5-5-5-------------------5-5-5-----------------------------
~~~~~~~~~~~~~~~~p.m~~~~~~~~~~~~~~
-----------------------------------------------------------
-----------------------------------------------------------
-------------5-5-5------------------5----------------------
-5-5-5-------5-5-5-X4----5-5-5------5-X9-------------------
-5-5-5-X4----3-3-3-------5-5-5-X4---3----------------------
-5-5-5-------------------5-5-5-----------------------------
-----------------------------------------------------------
-----------------------------------------------------------
-----------------------------------------------------------
-3--3-3-3-3--2--2-2-2-2--1--1-1-1--------------------------
-3--3-3-3-3--2--2-2-2-2--1--1-1-1-X2------------------------
-3--3-3-3-3--2--2-2-2-2--1--1-1-1--------------------------
Verse
-----------------------------------------------------------
-----------------------------------------------------------
-----------3-3-3-3-3-2--------3-3-3-3-2-3-5----------------
-3-5-5-5----------------3-3-3-----------------X8------------
-3-5-5-5----------------3-3-3------------------------------
-3-5-5-5----------------3-3-3------------------------------

-----------------------------------------------------------
-----------------------------------------------------------
-----------------------------------------------------------
-0-0-0--0-0-0--2-2-2--2-2-2--3-3-3--3-3-3--3-3-3--3-3-3----
-0-0-0--0-0-0--2-2-2--2-2-2--3-3-3--3-3-3--3-3-3--3-3-3-X2-
-0-0-0--0-0-0--2-2-2--2-2-2--3-3-3--3-3-3--3-3-3--3-3-3----
Chorus
-----------------------------------------------------------
-----------------------------------------------------------
--------------5-5-5--5-5-5--------------5-5-5--5-5-5-------
-5-5-5--5-5-5-5-5-5--5-5-5-2-2-2--2-2-2-5-5-5--5-5-5-------
-5-5-5--5-5-5-3-3-3--3-3-3-2-2-2--2-2-2-3-3-3--3-3-3-------
-5-5-5--5-5-5--------------2-2-2--2-2-2--------------------
-----------------------------------------------------------
-----------------------------------------------------------
-----------------------------5-5-5--5-5-5------------------
-5-5-5--5-5-5--1-1-1--1-1-1--5-5-5--5-5-5--3-5-X2----------
-5-5-5--5-5-5--1-1-1--1-1-1--3-3-3--3-3-3--3-5-------------
-5-5-5--5-5-5--1-1-1--1-1-1----------------3-5-------------




Ваше мнение



Капча