Artist: Grinspoon
Song: Tang
Tabbed by Odin (Steven Hawkes, [email protected])
Tuning: DADG
Dedicated to: Amy Hughes

Intro:
G--------------------------------------------------------
D--------------------------------------------------------
A--------------------------------------------------------
D--5---------4-------------5---------4------------------- X 2
Tap the 5 (G) very softly, almost unhearable then hit the 4 (f#) hard

Verse
G---------------------------------------------------------
D---------------------------------------------------------
A---------------------------------------------------------
D----55--5-55--5-55--5-55--5-44--4-44--4-44--4-44---------

Chorus
G---------------------------------------------------------
D---------------------------------------------------------
A---------------------666--------------------888----------
D---55--5-55--5-88--8------44--4-44--4-77--7-------------- X 2

Ending The Chorus
G---------------------------------------------------------
D---------------------------------------------------------
A---------------------------------------------------------
D---5-55555555555555-44--4-44--4-44--4-44----------------- X 2

Outro
G---------------------------------------------------------
D---------------------------------------------------------
A---------------------6--6--6--6--6--6--------------------
D---3-3-333-5-55-5-5--------------------------------------
On last time, hold the 3rd 6 (D#) til end of song.




Ваше мнение



Капча