grinspoon - SICKFEST

tabbed by acid -= [email protected] =-

intro:
G [---------------------]
D [---------------------]
A [--5p3p0-5p3p0--1-----]
D [------------------3--]

verse:
G [------------------|------------------------]
D [------------------|------------------------]
A [------------------|-5--3-------------------]
D [--0-0--0--0--3----|-------3---0-3-5-6-5-3--]

G [------------------|------------------------]
D [------------------|----3------0-3-5-6-5-3--] play these riffs twice
A [------------------|-5-----3----------------]
D [--0-0--0--0--3----|------------------------]

chorus:
G [----------------------|----------------------------]
D [----------------------|----------------------------]
A [----------------------|-5p3p0---------------3-4-5--]
D [--0-0-0-0-3-0-0-0-0-3-|-------0-3--0-3--0-3--------]

break u down bit:
G [-----------------------------------------]
D [-----------------------------------------]
A [-----------------------------------------]
D [--0-0-0-0----0-0-0-0-----0-0-0-0---0--1--]

guitar bit:
G [--------------------------------------------]
D [--------------------------------------------]
A [--------------------------------------------]
D [--0-0-0-12---0-0-0-12---0-0-0-12---0--1--]




Ваше мнение



Капча