key:
h=hammer on (to specified value)
p=pull off ( \" )
b=bend ( \" )
/=slide up ( \" )
\\=slide down ( \" )
x=muted string
X\\=pick Scrape
(7)=silent note
Pm..|=palm mute
Drop D tuning. (tune the top E string down one full step)
listen to the CD for timing
intro:
1st part:
Very Clean with
Light use of wah/wah (optional)
e|-----------------------------------------------------|
b|-----------------------------------------------------|
g|----------4---4---7-------------------------7-7-7-7--|
d|------4---4---4---7------5--0h2-2-2-2-2-2---7-7-7-7--|
a|--0h2---2---2-----5--5-5-5--0h2-2-2-2-2-2---5-5-5-5--|
D|---------------------5-5-5--0h2-2-2-2-2-2------------|
\\_________________________x2__________________________/
2nd part:
Distortion Hold
e|------------------------------------------------------|-------|
b|------------------------------------------------------|-------|
g|----------4-4-4-4-4--7------------------------7-7-7-7-|---4---|
d|------4-4-4-4-4-4-4--7--5-5-5--0h2-2-2-2-2-2--7-7-7-7-|---4---|
a|------0h2-2-2-2-2-2--5--5-5-5--0h2-2-2-2-2-2--5-5-5-5-|---2---|
D|--X\\--------------------5-5-5--0h2-2-2-2-2-2----------|-------|
\\_________________________x2___________________________/
Verse 1:
Clean with wah/wah
e|-----------------------------------------------------------|
b|-----------------------------------------------------------|
g|--7-7-7-------7-7-7-------7-7-7-------7-7-7-7b(1/4)-7\\4----|
d|-----------------------------------------------------------|
a|--------9-7---------9-7---------9-7------------------------|
D|-----------------------------------------------------------|
e|----------------------------------------------------|
b|----------------------------------------------------|
g|--7-7-7-------7-7-7-------7-7-7-------7-7-7---------|
d|----------------------------------------------------|
a|--------9-7---------9-7---------9-7---------9-7-----|
D|----------------------------------------------------|
would you like another bill........
e|----------------------------------------------------|
b|----------------------------------------------------|
g|--7-7-7-------7-7-7-------7-7-7-------7-7-7---------|
d|----------------------------------------------------|
a|--------9-7---------9-7---------9-7---------9-7-----|
D|----------------------------------------------------|
time controling..........................nothings free
Pre Chorus:
distortion
Play this power chord with a palm mute fast
& continously for the \"you dont own me\" sections
Pm..|
e|---- \\
b|---- |
g|--4- |
d|--4- |>x many
a|--2- |
D|---- /
you dont own me..............
then play this this:
Palm mute...........|
e|----------------------------------|
b|----------------------------------|
g|------4-4-4-----------------------|
d|--4-4-4-4-4--3-2-0-2-3-2-0-0-2-0--|
a|--0h2-2-2-2--3-2-0-2-3-2-0-0-2-0--|
D|-------------3-2-0-2-3-2-0-0-2-0--|
\\_______________x2________________/
Play the 'you dont own me' part again
then goto the chorus
Chorus:
distortion
Hold
e|--------------------------------------------------|------|
b|--------------------------------------------------|------|
g|------4-4-4-4-4--7------------------------7-7-7-7-|---4--|
d|--4-4-4-4-4-4-4--7--5-5-5--0h2-2-2-2-2-2--7-7-7-7-|---4--|
a|--0h2-2-2-2-2-2--5--5-5-5--0h2-2-2-2-2-2--5-5-5-5-|---2--|
D|--------------------5-5-5--0h2-2-2-2-2-2----------|------|
\\________________________x2________________________/
Kid in the rockshow...........
Post chorus solo:
Clean
e|----------------------------------------------------|
b|----------------------------------------------------|
g|--6h7-6-7#--6-7-6-7b9r7-6h7h6-4h6p4-2-4b6r4-1h2p1---|
d|----------------------------------------------------|
a|----------------------------------------------------|
D|----------------------------------------------------|
Now play Verse 1 again.
Then the Pre Chorus part then the chorus
Then the solo (Haven't figured it out yet but I will post it when I have)
Now do the Pre Chorus part again.
Then finish off with the Chorus x2.
THAT'S IT
There, easy to play, a bitch to tab.
Any Comments, Corrections, Additions
dont hesitate, e-mail me-->[email protected]




Ваше мнение



Капча