Drop to D tuning (DADGBE)
Intro
E----------------------------------|
B----------------------------------|
G-----4-----------------4----------|
D------4-----------------4---------|x4
A-(2)------2h3p2-2p0-0h2-----------|
D----------------------------------|
(only Play first time)
E----------------------------0----|
B------------------------3333-3---|
G----4444-77-------------2222-----|
D----4444-77-5555-0h2222-0000-----| x2
A--0h2222-55-5555-0h2222----------|
D------------5555-0h2222----------|
CHORUS
E-------------------------------|
B-------------------------------|
G----4444-77-------------777777-|
D----4444-77-5555-0h2222-777777-|
A--0h2222-55-5555-0h2222-555555-|
D------------5555-0h2222--------|
VERSE
With Wah
Guitar 1
E----------------|
B----------------|
G----4444--------|
D----4444-0h2222-|
A--0h2222-0h2222-|
D---------0h2222-|
Guitar 2
Part 1
E--------------------------|
B--33----33----33----333/0-|
G--------------------------|
D----5-4---5-2---5-4-------|
A--------------------------|
D--------------------------|
Part 2
E---------------------------|
B--33-----------33----------|
G---------------------------|
D----5-2-0-2p0----2---0-2p0-|
A-------------------5-------|
D---------------------------|
PRE CHORUS
E-----------------------------------------------------
B-----------------------------------------------------
G---------------4444----------------------------------
D--5555555555---4444-0-3-4-3-2-0-2-0-2p0--55555555555-
A--5555555555-0h2222-0-3-4-3-2-0-2-0-2p0-[x2]---------
D-----------------------------------------------------
Tabbed by Ryan Bullivant




Ваше мнение



Капча