-------------------------------------------------------------------------------
Rock Show - Grinspoon
-------------------------------------------------------------------------------
Tabbed by:Jon_Boi
Email:

Tuning:Tuned down to D

1st Riff
e|--------------------------------------------------------------------------
B|--------------------------------------------------------------------------
G|--------------------------------------------------------------------------
D|---4------4222--5555--h-5--0--h-2222--0--5555-------repeat-2x-------------
A|---0-h-2--2222--3333--h-5--0--h-2222--0--3333-----------------------------
D|----------------------h-5--0--h-2222--0-----------------------------------

2nd Riff
e|--------------------------------------------------------------------------
B|--------------------------------------------------------------------------
G|--------------------------------------------------------------------------
D|---4---44222--5555--h-555555555555555---4---44444--55555--h-5-------------
A|---0-h-22222--3333--h-555555555555555---0-h-22222--33333--h-5-------------
D|--------------------h-555555555555555---------------------h-5-------------

Pre Chorus
e|--------------------------------------------------------------------------
B|--------------------------------------------------------------------------
G|-----------------------repeat-the-----------------------------------------
D|---4-------4-p-0-0-----1st-riff-------------------------------------------
A|---0-h-2-2----------------------------------------------------------------
D|--------------------------------------------------------------------------
Chorus Same As 1st Riff
e|--------------------------------------------------------------------------
B|--------------------------------------------------------------------------
G|--------------------------------------------------------------------------
D|---4------4222--5555--h-5--0--h-2222--0--5555-----------------------------
A|---0-h-2--2222--3333--h-5--0--h-2222--0--3333-----------------------------
E|----------------------h-5--0--h-2222--0-----------------------------------

Thanks, any comment please let me know. i done this by ear but sounds good




Ваше мнение



Капча