yeh this is a cool song by grinspoon
this Is my first tab yeah SO IT S PROBABLY WRONG
riff #1 repeat this few times
E-----------------------------------------------------------------|
B-----------------------------------------------------------------|
G------------7----------------------------------------------------|
D-9-9-9--4---7----5-5-5-7-7-8-8-9-9-9-----------------------------|
A-9-9-9--4---5----5-5-5-7-7-8-8-9-9-9-----------------------------|
E-7-7-7--2--------3-3-3-5-5-6-6-7-7-7-----------------------------|
VERSE
E----- ---------------------------------------------------|
B----- -----7-7-7-7-7PO5------- ---------------|
G----- bASS ------------------------ bASS -4-4-4-4-4PO2--|
D----- ---------------------------------------------------|
A----- ---------------------------------------------------|
E----- ---------------------------------------------------|
bIT IN THE MIDDLE
YEAH REPEAT THIS TOO
E---------------------------------------------------------|
B---------------------------------------------------------|
G-----------------------9-9-9-----------------------------|
D--9-9-9---7-7-7-6-6-6--9-9-9---6-6-6-7-7-7---------------|
A--9-9-9---7-7-7-6-6-6--7-7-7---6-6-6-7-7-7---------------|
E--7-7-7---5-5-5-4-4-4----------4-4-4-5-5-5---------------|
THIS IS GOOD SONG
WRITE TO SAY HOW CRAP THE TAB IS
[email protected]




Ваше мнение



Капча