Song Title: Pedestrian
Band: Grinspoon
Tabber: Todd Ford ([email protected])
Tuning: Dropped D Tuning
Intro
|---------------------------------|
|---------------------------------|
|--------------------------1-1-1--|
|--0-2-3-0-2-3-0-2-3-0-2-3--------|
Verse
|------------------------------------------|
|------------------------------------------|
|------------------------------------------|
|-0-0-0-0-10-10-10-10-0-0-0-0-10-10-10-10--|
|-----------------------------------|
|-----------------------------------|
|-----------------------------------|
|--5-5-5-5-3-3-3-5/6/5-5-5-5-3-3-3--|
Interlude
|---------|
|---------|
|---------|
|-0-0-0-0-|




Ваше мнение



Капча