Grinspoon – Overdriver
Drop D Tuning (low to high: D A D G B E)
Note: Not yet finished
Intro
|-------------------------------------------|
|-------------------------------------------|
|-------------------------------------------|
|-------------------------------------------|
|-3h5----3h5--------3h5-5h6----3h5--------3-|
|-----00-----00-3h5---------00-----00-3h5---|
|---------|
|---------|
|---------|
|-00---00-|
|-00---00-|
|-00---00-|
Chorus
|---------------------------|
|---------------------------|
|---------------------------|
|-00-------3--00-------3tr4-|
|-00-5-3-5----00-5-3-5------|
|-00----------00------------|
|---------------|
|---------------|
|---------------|
|-00-------3--2-|
|-00-5-3-5-1--0-|
|-00------------|
====




Ваше мнение



Капча