Grinspoon
more than you are
[email protected]
intro
e-------------------------------------------------------
b-------------------------------------------------------
g-------------------------------------------------------
d-9-9-9-9--7-7-7-7--5-5-5-5-5-5-------------------------
a-9-9-9-9--7-7-7-7--5-5-5-5-5-5-------------------------
E-7-7-7-7--5-5-5-5--3-3-3-3-3-3-------------------------
repeat a couple of times
nothing is played in the verse except:
e-----------------------------------------
b-----------------------------------------
g-11^-------------------------------------
d-----------------------------------------
a-----------------------------------------
E-----------------------------------------
chorus
exactly the same as intro
bit after chorus
screw around with the intro power chords - they're the same but in a different order
cheers! :)




Ваше мнение



Капча