e: Tue, 17 Mar 1998 20:47:50 +1000
From: Liz Charlesworth
Subject: TAB: 'Just Ace' by 'Grinspoon'
GrinSpoon: Just Ace (P. Jamieson)
I did this to keep Australian bands alive. I looked everywhere and
couldn't find this TAB so I just wrote it myself! Enjoy! Email me for
any comments or suggestions..
Guitar Intro x2
e----3------0-------------------0---2---3------0---------------------/
b-------3------0--0-0---1----3-------------3------0--0--0--1-0-------/
g----------------------------------------------------------------2-0-/
d--------------------------------------------------------------------/
A--------------------------------------------------------------------/
E--------------------------------------------------------------------/
Verse
Bass Lick x2
g----------------------------------------------/
d/5-5--0-0--2-2----------/5-5--0-0--2-2--------/
A----------------3--3--------------------3--3--/
E----------------------------------------------/
Chorus x4 - Guitar Distorted
e-----------------------------------/
b-----------------------------------/
g-----------7--7------------5--5----/
d---5--5----7--7----2--2----5--5----/
A---5--5----5--5----2--2----3--3----/
E---3--3------------0--0------------/
LYRICS
Since-since-since you've gone away
i hope you had a better day
tried to call round the other day
instead i had a go-kart
Go-Kart
Livin in another space
Mistake
Yeah yeah!
I hope the police will go away
I hope the police will go away
their sirens bug me
and so do all their radars
Radars
Living in another space
Mistake
Thanx i'm over it
YEAH!
YEAH!
YEAH!
YEAH! YEAH!
YEAH YEAH Y-Y-YEAH!
Sweet child you're such a princess now
i love the rainbow on your brow
i love your rainbow
oh no it's winter
Winter
Living in another space
Mistake
Thanx i'm over it
This TAB was brought to you by Saul
email - [email protected]




Ваше мнение



Капча