Grinspoon, Just Ace.
Tabbed by Glenn Andreasen, [email protected]

Date: 4/07/01
Band: Grinspoon
Song: Just Ace
Tuning: D A D G B E

Intro
E 3------------2-3----------------3------------2-3---
B -3-5------3-5---3-5--------------3-5------3-5---3-5
G ----4-44-5---------4-44-5-4-2-0-----4-44-5---------

E -----------
B ------3-5--
G 4-44-5---0-let ring

Chorus
D 5555-7777-222-5-5-
A 5555-5555-222-3-3-
D 5555------222-----

Bridge
D 5-5-7-7-2-2-5-5-----5----------5-------------
A 5-5-5-5-2-2-3-3-----5----------5-------------
D 5-5-----2-2------x4-5-let ring-5-let ring-p.s

Outro
D 5---5555555-5-----5--
A 5---5555555-5-----5-
D 5---5555555-5-----5-

That's it, too easy, just listen to the cd for song flow and timing. email is [email protected]




Ваше мнение



Капча