-------------------------------------------------------------------------------
Don't Change - Grinspoon
-------------------------------------------------------------------------------
I'v had this tabbed out for a while but since the other tab on this site isn't
complete i'll put my version on.
Tabbed By: luke zelazko
Tuning: Standard
Email: [email protected]
/ = pick slide down
x = palm muted
h = hammer on
~ = hold
intro
E|---------------------------------------------------------------------
B|---------------------------------------------------------------------
G|-14~--9--11~--6--9~--4--6~-------------------------------------------
D|---------------------------------------------------------------------
A|---------------------------------------------------------------------
E|---------------------------------------------------------------------
E|-------------------------|-------------------------------------------
B|-------------------------|---swap between these two------------------
G|-------------------------|-----------------------14h16-16-16---------
D|-//7--Let------7--6--4---|----x44444---------------------------------
A|-//7--ring-----7--6--4---|----x44444---------------------------------
E|-//5-----------5--4--2---|----x22222---------------------------------
Don't change a thing a .... for me
E|---------------------------------------------------------------------
B|--------------------------------------14----14----14-----------------
G|-4444----7777-----------------------14----14----14-------------------
D|-4444----7777------777------------------14----14---------------------
A|-2222----5555------777-----2nd verse---------------------------------
E|-------------------555-----------------------------------------------
Ending
E|-------------------------------------|-------------------------------
B|-------------------------------------|-------------------------------
G|-11------------9999---6s777---6s777--|-x2----------------------------
D|-11-strum a----9999---6s777---6s777--|-----------7-------------------
A|-9----bit------7777---4s555---4s555--|-----------7-------------------
E|-------------------------------------|-----------5-------------------




Ваше мнение



Капча