Dead Cat X3
Grinspoon
Transcribed by Jarrod Rueff
Drop D Tuning (low to high: D A D G B E)
Intro
Play X2
|----------------|
|----------------|
|----------------|
|-3-3-3----5-5-5-|
|-3-3-3----5-5-5-|
|-3-3-3----5-5-5-|
Play X4
|------------------------------------|
|------------------------------------|
|------------------------------------|
|------------------------------------|
|------------------------------------|
|-3p0-0-5p0-0-6p0-0-3/12-12-12-12-12-|
Chrous
Play X2
|----------------|
|----------------|
|----------------|
|-3-3-3----5-5-5-|
|-3-3-3----5-5-5-|
|-3-3-3----5-5-5-|




Ваше мнение



Капча