grinspoon - DCX3

tabbed by acid -= [email protected] =-

intro.chorus:
G [-----------|----------|----------|----------]
D [-----------|----------|----------|----------]
A [-----------|----------|----------|----------]
D [--3--3--3--|-5--5--5--|-3--3--3--|-5--5--5--]

verse riff:
G [----------------------------------------]
D [----------------------------------------]
A [----------------------------------------]
D [--0-3-0-0-5-0-0-6-0-0-7-0-/12-12-12-12--]

break:
G [-------------------------------------]
D [-------------------------------------]
A [-------------------------------------]
D [--0-3-0-0-5-0-0-6-0-0-5-0-0-3--3--3--]

guitar solo:
G [----------------|----------------|----------------|----------------]
D [----------------|----------------|----------------|----------------]
A [----------------|----------------|----------------|----------------]
D [-0--0-0-0-0-0-0-|-1--1-1-1-1-1-1-|-2--2-2-2-2-2-2-|-3-3-3-3-3-3-3--]

G [---------------------------------|---------------------------------]
D [---------------------------------|---------------------------------]
A [---------------------------------|---------------------------------]
D [--4--4-4--5--5-5--6--6-6--7--7-7-|-8-/9-/10-/11-/12-/13-/14/15-15--]




Ваше мнение



Капча