Grinspoon - Damn Straight
Tabbed By: Simon Bailey
EMail: [email protected]

Drop D Tuning

INTRO/CHORUS
E|-------------------------------|
B|-------------------------------|
G|-------------------------------|
D|-0-----------------------3-2-1-|
A|-0-5-3-5-3---5-3---5-5---3-2-1-|
D|-0---------0-----0-----0-3-2-1-|

VERSE DECENDING BIT
E|---------------------------------|---------------------------------|
B|---------------------------------|---------------------------------|
G|---------------------------------|---------------------------------|
D|-7-7-7-7-7-7-7-7-----------------|-7-7-7-7-5-5-5-5-----------------|
A|-5-5-5-5-5-5-5-5-3-3-3-3-6-6-5-5-|-5-5-5-5-3-3-3-3-7-7-7-7-5-5-5-5-|
D|-----------------3-3-3-3-6-6-5-5-|-----------------7-7-7-7-5-5-5-5-|

PRE-CHORUS
E|-----------------|
B|-----------------|
G|---------------5-|
D|-5-5-X-X-3-3-X-5-|
A|-5-5-X-X-3-3-X-3-|
D|-5-5-X-X-3-3-X---|

2ND CHORUS
E|-------------------------|
B|-------------------------|
G|-------------------------|
D|-0-0-X-5s7-X-8s7-0-2h3-2-|
A|-0-0-X-3s5-X-6s5-0-2h3-2-|
D|-0-0-X-----X-----0-2h3-2-|

SOLO 2 GUITARS (TIMINGS NOT RIGHT)
GUITAR 1
E|---------------------------------|
B|-6-6-6-6-6-6-6-6-6-6-6-6-6-6-6-6-|
G|-5-5-5-5-5-5-5-5-5-5-5-5-5-5-5-5-|
D|-3-3-3-3-3-3-3-3-3-3-3-3-3-3-3-3-|
A|---------------------------------|
D|---------------------------------|

GUITAR 2
E|----------------------------------------------------------------------|
B|----------------------------------------------------------------------|
G|-10-10-10-10-10-10-10-10-12-12-12-12-12-12-12-10-10-10-10-10-10-10-10-|
D|-X--X--X--X--X--X--X--X--X--X--X--X--X--X--X--X--X--X--X--X--X--X--X--|
A|-8--8--8--8--8--8--8--8--8--8--8--8--8--8--8--8--8--8--8--8--8--8--8--|
D|----------------------------------------------------------------------|




Ваше мнение



Капча