Grinspoon
Chemical Heart
INTRO/ verses
|----------------------------------------------------------|
|-------15--------15--------15///////13-----12----12///15--|
|-----------14--------14--------14///////12----12---12///14|
|---------------0---------0----------------0------0--------|
|----------------------------------------------------------|
|----------------------------------------------------------|

CHORUS

|-222/-55/-77----------------------------------------------|
|-333/-66/-88----------------------------------------------|
|-222/-55/-77----------------------------------------------| repeat a few times
|----------------------------------------------------------|
|----------------------------------------------------------|
|----------------------------------------------------------|

tabbed by hally




Ваше мнение



Капча