Here is a great aussie band if u ever get the chance to see them live
this how they play this song
Intro/Verse
e -----------------------------------------------------------
b -----------------------------------------------------------
g ----7-------7------7----------5-----4-------4--------------
d -------7------7p0----7/5---------5-----5p0-----5/7---------
a -----------------------------------------------------------
E -----------------------------------------------------------

Chorus
Can't Get Started Chemical Heart
e -------------0-0---0---0-0------0--0-------0-----0-0----0-------
b --1---3--3---3-3---3---3-3------6--6-------8-----8-8----8-------
g --0---2--2---2-2---2---2-2------5--5-------7-----7-7----7-------
d ----------------------------------------------------------------
a ----------------------------------------------------------------
E ----------------------------------------------------------------
Everytime I Get Started You Pull Me Apart
e -------------0-0---0---0-0------0--0-------0-----0-0----0-------
b --1---3--3---3-3---3---3-3------6--6-------8-----8-8----8-------
g --0---2--2---2-2---2---2-2------5--5-------7-----7-7----7-------
d ----------------------------------------------------------------
a ----------------------------------------------------------------
E ----------------------------------------------------------------

Interlude
e ---0--0--0---------0-----------0--0--0---------0----------------
b ---6--6--6----6-6--6---6-6-----5--5--5----5-5--5---5-5----------
g ---5--5--5----5-5--5---5-5-----4--4--4----4-4--4---4-4----------
d ----------------------------------------------------------------
a ----------------------------------------------------------------
E ----------------------------------------------------------------
Repeat x3
e --5--5--5-----5---5-5---5---5-5------3--3--3-----3---3-3---3--3-
b --5--5--5-----5---5-5---5---5-5------3--3--3-----3---3-3---3--3-
g --7--7--7-----6---6-6---6---6-6------5--5--5-----4---4-4---4--4-
d --7--7--7-----7---------7------------5--5--5-----5---------5----
a --5--5--5-----7---------7------------3--3--3-----5---------5----
E ----------------------------------------------------------------

e --1---1--1----1-1---1---1-1-----------0------0-----0---0--------
b --1---1--1----1-1---1---1-1-----------0------0-----0---0--------
g --2---2--2----2-2---2---2-2--------1--1---1--1--1--1---1--------
d --3------3----3-3-------3-3--------2--2---2--2--2--2---2--------
a --3------3----3-3-------3-3--------2--2---2--2--2--2---2--------
E ----------------------------------------------------------------

play D chord at the end
e -------0-------------------------------------
b ------3--------------------------------------
g -----2---------------------------------------
d ----0----------------------------------------
a ---0-----------------------------------------
E --0------------------------------------------




Ваше мнение



Капча