======================================================================
CHEMICAL HEART - Grinspoon
======================================================================

slide : /

intro riff
e--------------------------------------------------------|
B----15------15-------15-------13------12-------12-------|
G-------14------14------14/12-----12------12------12/14--|
D---------0--------0----------------0--------0-----------|
A--------------------------------------------------------|
E--0-----------------------------------------------------|

chorus riff
e------------------------------------------|
B--5/7-7--7-7-7--7-7/10--10-10-10-10/12-7--|
G--5/7-7--7-7-7--7-7/9---9--9--9---9/11-7--|
D------------------------------------------|
A------------------------------------------|
E------------------------------------------|




Ваше мнение



Капча