Drop D Tuning (low to high: D A D G B E)
Intro
(play 4 times)
|---------------------------|
|---------------------------|
|---------------------------|
|--00-0-10-0-8--------------|
|--00-0-10-0-8-----------3--|
|--00-0-10-0-8-0-3p0-2h3----|
|--------------------------------------|
|--------------------------------------|
|--------------------------------------|
|--0-0-00--0-0-000--0-0-00-00-0-0-0-1--|
|--0-0-00--0-0-000--0-0-00-00-0-0-0-1--|
|--0-0-00--0-0-000--0-0-00-00-0-0-0-1--|
|--------------------------------|-----------------------|
|--------------------------------|-----------------------|
|--------------------------------|-----------------------|
|--0-0-00--0-0-000--0-0-00-0--1--|-----------------------|
|--0-0-00--0-0-000--0-0-00-0--1--|--/5---fdbk.-----------|
|--0-0-00--0-0-000--0-0-00-0--1--|-----------------------|
let ring w/Guitar 2 (four bars). . . . . . .
Guitar 2 w/Wah Wah
(7 times)
|----x---x--|
|----x---x--|
|----x---x--|
|--x---x----|
|--x---x----|
|--x---x----|
Verses
(play four times)
|---------------------|
|---------------------|
|---------------------|
|--0-0----------------|
|--0-0---3-4-5--------|
|--0-0---3-4-5b-0-3b--|
|Guitar 2. |
|---------------------|
|---------------------|
|------5--------------|
|------5--------------|
|---------------------|
|---------------------|
harm
w/ Let's not beat around the bush
I got my hands in the air with my head down look
Disease please pay phone the back of my car
Automatic teller man your're gonna go far
|--------------------------------------|
|--------------------------------------|
|--------------------------------------|
|--0-0-00--0-0-000--0-0-00-00-0-0-0-1--|
|--0-0-00--0-0-000--0-0-00-00-0-0-0-1--|
|--0-0-00--0-0-000--0-0-00-00-0-0-0-1--|
Man your're gonna go far
|--------------------------------|
|--------------------------------|
|--------------------------------|
|--0-0-00--0-0-000--0-0-00-0--1--|
|--0-0-00--0-0-000--0-0-00-0--1--|
|--0-0-00--0-0-000--0-0-00-0--1--|
2. Flaccid the best in the world
Apology glitter for the flitter with the punk girl
God knows you like it
We all know about you sucker
Bridge
|-----------------------------------|
|-----------------------------------|
|-----------------------------------|
|--7-7-7-7-7-7-7-7-7-7-7-7-7-7-7-7--|
|--5-5-5-5-5-5-5-5-5-5-5-5-5-5-5-5--|
|-----------------------------------|
p.m. . . . . . . . . . . . . . . . . . . . . . . . . . . . . . . . . . . . . . .
|-----------------------------------|
|-----------------------------------|
|-----------------------------------|
|--7-7-7-7-7-7-7-7-7-7-7-7-7-7-7-7--|
|--5-5-5-5-5-5-5-5-5-5-5-5-5-5-5-5--|
|-----------------------------------|
|-------------------|
|-------------------|
|-------------------|
|--5--3--2--7--5-3--|
|--5--3--2--7--5-3--|
|--5--3--2--7--5-3--|
Chorus
(play two times)
|--------------------------------------|
|--------------------------------------|
|--7--7--7--7--7--7--------------------|
|--7--7--7--7--7--7---5--3--2--7--5-3--|
|--5--5--5--5--5--5---5--3--2--7--5-3--|
|---------------------5--3--2--7--5-3--|
Your world champion now
Champion
Outro
(play 4 times)
|---------------------------|
|---------------------------|
|---------------------------|
|--0-0--------3-3-4-5-------|
|--0-0--3-55--3-3-4-5-------|
|--0-0--------3-3-4-5-0-3b--|
|---------------------------------|
|--0-0-0-0--0-0-0-0-0--0-0-0-0-0--|
|--0-0-0-0--0-0-0-0-0--0-0-0-0-0--|
|--0-0-0-0--0-0-0-0-0--0-0-0-0-0--|




Ваше мнение



Капча