Grinspoon
Boltcutter
INTRO(X4)/VERSE(X2)
Pt 1
-----------------------
-------10--------------
-7-7-7----7-7-8--------
----------------------- X3
-----------------------
-----------------------
-----------------------
-----------------------
-7-8-8-10-10-10-------
----------------------- X1
-----------------------
-----------------------
Pt 2 (X2)
-----------------------
-----------------------
-7-5---5-7-5-8---------
-----7----------------- X3
-----------------------
-----------------------
-----------------------
-----------------------
-7-5-------------------
-----7-8-8-8---------- X1
-----------------------
-----------------------
CHORUS (X2)
Guitar 1
-----------------------
-----------------------
-3--5--------3--5------
-3--5--6--8--3--5--1---
-1--3--6--8--1--3--1---
-------6--8--------1---
Guitar 2 does this on second time
-----------------------
-----------------------
-3--5--------10-12-----
-3--5--6--8--10-12-1---
-1--3--6--8--8--10-1---
-------6--8--------1---
VERSE
CHORUS
BRIDGE
Pt 1
-------------------------
-------------------------
-877776666555544443-
-877776666555544443- X4
-655554444333322221-
-------------------------
Last chord is also first chord in Pt 2
Pt 2.
-----------------------
-----------------------
-3---------------------
-3--3--4--1------------ X6
-1--3--4--1------------
----3--4--1------------
VERSE
CHORUS
OUTRO - BRIDGE Pt 1 Only, Let Ring Last Chord
what a top song by a great aussie band




Ваше мнение



Капча