BAND: GRINSPOON
ALBUM: LOST CONTROL SINGLE
SONG: ALL GOOD (TRACK 2)
TABBED BY:BEN WOODMASON
E-MAIL: [email protected]
INSTRUMENT: GUITAR
TUNING: DROP D (DADGBE)
Legend:
PM - palm mute
X - muted string
h - hammer on
p - pull off
(lr) - let ring
/- slide up
b - bend
NOTE: This tab is not written to exact time. listen to the cd
to get that.
INTRO/MAIN RIFF: (DISTORTION ON)
d:--5-7--3-5-0-(lr)--------5-7--3-5---------
A:----------------------------------3b-(lr)- x 4
D:------------------------------------------
HEAVY PART 1:
d:--5/7--3/5-0---3-3-0-3-0
A:--5/7--3/5-0---3-3-0-3-0 x 4
D:--5/7--3/5-0---3-3-0-3-0
VERSE: (SOME KIND OF FLANGE EFFECT)
d:--5-7--3-5-0-(lr)--------5-7--3-5---------
A:----------------------------------3b-(lr)- x 8
D:------------------------------------------
CHORUS: (DISTORTION ON)
d:--0-0-0-0-0-0-0-0-3-3-3-3-3-3-3-3-5-5-5-5-5-5-5-5-0-0-5--0-(lr)
A:--0-0-0-0-0-0-0-0-3-3-3-3-3-3-3-3-5-5-5-5-5-5-5-5-0-0-5--0-(lr) X 1
D:--0-0-0-0-0-0-0-0-3-3-3-3-3-3-3-3-5-5-5-5-5-5-5-5-0-0-5--0-(lr)
MAIN RIFF/VERSE:
d:--5-7--3-5-0-(lr)--------5-7--3-5---------
A:----------------------------------3b-(lr)- x 4 WITH DISTORTION x 8 WITH FLANGE
D:------------------------------------------
CHORUS: (DISTORTION ON)
d:--0-0-0-0-0-0-0-0-3-3-3-3-3-3-3-3-5-5-5-5-5-5-5-5-0-0-5--0 |-0-(lr)
A:--0-0-0-0-0-0-0-0-3-3-3-3-3-3-3-3-5-5-5-5-5-5-5-5-0-0-5--0 X 2 |---
D:--0-0-0-0-0-0-0-0-3-3-3-3-3-3-3-3-5-5-5-5-5-5-5-5-0-0-5--0 |---
MAIN RIFF:
d:--5-7--3-5-0-(lr)--------5-7--3-5---------
A:----------------------------------3b-(lr)- x 4
D:------------------------------------------
HEAVY PART 2:
d:--5/7--0-h5-p0-h3-0-3-3-0-----------
A:--5/7--0-h5-p0-h3-0-3-3-0--3-h5-p0-- X 4
D:--5/7--0-h5-p0-h3-0-3-3-0-----------
BUILD UP TO LAST CHORUS:
D:--PM-0-0-0-0-0-0-0-0-3-3-3-3-3-3-3-3-5-5-5-5-5-5-5-5-0-0-0-0-5-5-0 X 1
d:-----------------------------------------------------0-0-5--0
A:-----------------------------------------------------0-0-5--0 x1
D:--PM-0-0-0-0-0-0-0-0-3-3-3-3-3-3-3-3-5-5-5-5-5-5-5-5-0-0-5--0
CHORUS: (DISTORTION ON)
d:--0-0-0-0-0-0-0-0-3-3-3-3-3-3-3-3-5-5-5-5-5-5-5-5-0-0-5-0-(lr)
A:--0-0-0-0-0-0-0-0-3-3-3-3-3-3-3-3-5-5-5-5-5-5-5-5-0-0-5-0-(lr) X 2
D:--0-0-0-0-0-0-0-0-3-3-3-3-3-3-3-3-5-5-5-5-5-5-5-5-0-0-5-0-(lr)





Ваше мнение



Капча