1000 Miles
Grinspoon
New Detention
Tabbed by: Brad Wood
Ryan Thyer, Good tab but the heavy riff is:
e|--------------------------------------|
B|--------------------------------------|
G|--------------------------------------|
D|---0----3p0-3p0-0-0-7p0-0-8p0-0-3-----|
A|---0----3p0-3p0-0-0-7p0-0-8p0-0-3-----|
D|---0----3p0-3p0-0-0-7p0-0-8p0-0-3-----|

And the chorus goes...
e|-------------------------------------------------------|
B|-------------------------------------------------------|
G|-------------------------------------------------------|
D|----8------7--6-----0----3p0-3p0-0-0-7p0-0-8p0-0-3-----|
A|----8------7--6-----0----3p0-3p0-0-0-7p0-0-8p0-0-3-----|
D|----8------7--6-----0----3p0-3p0-0-0-7p0-0-8p0-0-3-----|
A thou - sand miles
e|-----------------------------------------------|
B|-----------------------------------------------|
G|-----------------------------------------------|
D|----5---6---7----3p0-3p0-0-0-7p0-0-8p0-0-3-----|
A|----5---6---7----3p0-3p0-0-0-7p0-0-8p0-0-3-----|
D|----5---6---7----3p0-3p0-0-0-7p0-0-8p0-0-3-----|
Come Get all your files(?)
e|-------------------------------------------------------|
B|-------------------------------------------------------|
G|-------------------------------------------------------|
D|----8-------7---6---0----3p0-3p0-0-0-7p0-0-8p0-0-3-----|
A|----8-------7---6---0----3p0-3p0-0-0-7p0-0-8p0-0-3-----|
D|----8-------7---6---0----3p0-3p0-0-0-7p0-0-8p0-0-3-----|
Put on your plastic smiles
e|---------------------------|
B|---------------------------|
G|---------------------------|
D|----5------------6---7-----|
A|----5------------6---7-----|
D|----5------------6---7-----|
A thousand MILES
e|----------------|
B|----------------|
G|----------------| x4
D|----0-----------|
A|----0-----------|
D|----0-----------|
Go Go Go




Ваше мнение



Капча