green day - your ass looks like two elephants wrestling
Tabbed By: paul
EMail: [email protected]
EASY LITTLE SONG OF SHENANIGANS(HIDDEN)
INTRO
---------------------------------------------------
---------------------------------------------------
-------7-----------77--------------------------------
-------------5-----------5---------------------
VERSE
----------------------------033----------------
------------------------03-------------------
------------4444-2211---------------------------------
-----5555---------------------------------------X4
CHORUS
------------------------------------------33333333--
----------------------------------22222222---------
-----------------------444444444----------------------
=------55555555555-------------------------------------
OUTRO
----------------------------------------------------------
----------------------------------------------------------
--------------------------------------------------------5-
---555555-00000000-77777777-7-5555555000000000777777777-7-


Ваше мнение



Капча