Hola soy Adrian tengo 14 aсos y es mi rpimer tab, si tienen cualquier duda o
sugerencia escribanme a [email protected] y bueno ahi me deben una y
!que viva la Junkpile!
Introduccion
G#5-A5
e|---------------------------------------------------------------|
B|---------------------------------------------------------------|
G|---------------------------------------------------------------|
D|-6-/-7--7--7--7------------------------------------------------|
A|-6-/-7--7--7--7------------------------------------------------|
E|-4-/-5--5--5--5------------------------------------------------|
Verso (x2)
G#5-A5 (x4) F5-F#5 (x2)
e|---------------------------------------------------------------|
B|---------------------------------------------------------------|
G|---------------------------------------------------------------|
D|-6-/-7--7--7--7--------3-/-4--4--4--4--------------------------|
A|-6-/-7--7--7--7--------3-/-4--4--4--4--------------------------|
E|-4-/-5--5--5--5--------1-/-2--2--2--2--------------------------|
Coro
E5 D5 (x4)
e|---------------------------------------------------------------|
B|---------------------------------------------------------------|
G|-9----7--------------------------------------------------------|
D|-9----7--------------------------------------------------------|
A|-7----5--------------------------------------------------------|
E|---------------------------------------------------------------|
Puente (x2) (tocando todas las notas del verso)
e|---------------------------------5-----------------------------|
B|-------2---5---2---------2---5-----------------2---------------|
G|-1-2---------------1-2---------------------3-------3-----------|
D|-------------------------------------3-4-----------------------|
A|---------------------------------------------------------------|
E|---------------------------------------------------------------|
final A5
e|-2---------2----------2---------2------------------------------|
B|----5--2-----5--2---5----5--2-----5--2-------------------------|
G|---------------------------------------------------------------|
D|-------------------------------------------7-------------------|
A|-------------------------------------------7-------------------|
E|-------------------------------------------5-------------------|
Orden
Introduccion
Verso 1
Coro
Verso 2
Coro
Puente
Coro
Introduccion repetida en el final
LETRA
You got a problem you just can't hide
Compulsive habits that just don't seem to die
Your breath is stinkin up all the air (Verso 1)
Your teeth are rotting 2 black holes in your head
Well reality is due
What you say just can't be true
Your story's stretched (Coro)
A toe far-fetched
And you're lacking an excuse
You lied
You mom allowed you just one white lie
But now she thinks she left you with a problem (Verso 2)
Pinnochio has bit your tongue
Your nose is growing into the 3rd dimension
(Coro)
(Puente)
(Coro)
FIN




Ваше мнение



Капча