Verse 1 w/ VERSE
E5 H5 A5 E5
Another sentimental argument, and bitter love.
A5 E5 A5 H5
Fucked without a kiss again and dragged it through the mud.
Yelling at brick walls and punching windows made of stone.
The worry rock has turned to dust, and fallen on our pride.

Chorus w/ CHORUS
C#5 G#5
A knocked down dragged out fight.
A5 E5
Fat lips and open wounds.
C#5 G#5
Another wasted night,
F#5 H5
And no one will take the fall.

Where do we go from where?
and what did you do with the directions?
Promise me no dead end streets and I´ll guarantee we´ll have the road.

Solo w/ SOLO
e:-----------------:-----------------:-----------------:-----------------:
b:-----------------:-----------------:-----------------:-----------------:
g:-----------------:-----------------:-----------------:-----------------:
d:-----------------:-----------------:-----------------:-----------------:
a:-------------2---:----/6---4---2---:-0---4---2---0---:-2---------------:
e:-0-----4-5-------:-4---------------:-----------------:---5-4-----------:

e:-----------------:-----------------:-----------------:-----------------:
b:-----------------:-----------------:-----------------:-----------------:
g:-----------------:-----------------:-----------------:-----------------:
d:-----------------:-----------------:-----------------:-----------------:
a:-----4---2-------:-2---------------:-----------------:-----------------:
e:-5-----------5---:-----4---0-------:-5---5---5---4---:-4---2-----------:

e:-----------------:-----------------:-----------------:-----------------:
b:-5-5-5-5-5-4-4-4-:-5/7---5-5-0-2-2-:-2-0-2-2-2-0-2-2-:-4-2---0-0-0-2-2-:
g:-----------------:-----------------:-----------------:-----------------:
d:-----------------:-----------------:-----------------:-----------------:
a:-----------------:-----------------:-----------------:-----------------:
e:-----------------:-----------------:-----------------:-----------------:

e:-----------------:-----------------:--------------/7-:-7-5-5-4-4-2----:
b:-2-0-2-2-2-0-2-2-:-4-2---0-0---2-2-:-4-4-5-5-5-5-5/7-:-7-5-5-4-4-2----:
g:-----------------:-----------------:-----------------:-----------------:
d:-----------------:-----------------:-----------------:-----------------:
a:-----------------:-----------------:-----------------:-----------------:
e:-----------------:-----------------:-----------------:-----------------:


Ваше мнение



Капча