-------------------------------------------------------------------------------
When I come around - Green day
-------------------------------------------------------------------------------
Tabbed by:J-Mac
Email:[email protected]

Tuning:EADGBe

Main riff:
e|---------------------------------------------------------------------------
B|---------------------------------------------------------------------------
G|---------------------------------------------------------------------------
D|--4-4-4--11-11-11--13-13--9~-9-9-------------------------------------------
A|--4-4-4--11-11-11--13-13--9~-9-9-------------------------------------------
E|--2-2-2--9--9--9---11-11--7~-7-7-------------------------------------------
times 12
Chorus:
e|---------------------------------------------------------------------------
B|---------------------------------------------------------------------------
G|---------------------------------------------------------------------------
D|--6-6-6-6-6-6-6-6--9-9-9-9-9-9-9-9-----------------------------------------
A|--6-6-6-6-6-6-6-6--9-9-9-9-9-9-9-9-----------------------------------------
E|--4-4-4-4-4-4-4-4--7-7-7-7-7-7-7-7-----------------------------------------
times 2
Solo:
e|--3---3---5---5---3---5---3-3---3--3--5--5---------------------------------
B|----3---3---3---3---3---3-----3---3--3--3--3-5-5-5-5-----------------------
G|---------------------------------------------------------------------------
D|---------------------------------------------------------------------------
A|---------------------------------------------------------------------------
E|---------------------------------------------------------------------------
Same as the chorus:
e|---------------------------------------------------------------------------
B|---------------------------------------------------------------------------
G|---------------------------------------------------------------------------
D|--6-6-6-6-6-6-6-6--9-9-9-9-9-9-9-9-----------------------------------------
A|--6-6-6-6-6-6-6-6--9-9-9-9-9-9-9-9-----------------------------------------
E|--4-4-4-4-4-4-4-4--7-7-7-7-7-7-7-7-----------------------------------------
times 2
Main riff:
e|---------------------------------------------------------------------------
B|---------------------------------------------------------------------------
G|---------------------------------------------------------------------------
D|--4-4-4--11-11-11--13-13--9~-9-9-------------------------------------------
A|--4-4-4--11-11-11--13-13--9~-9-9-------------------------------------------
E|--2-2-2--9--9--9---11-11--7~-7-7-------------------------------------------
times 4




Ваше мнение



Капча