#----------------------------------PLEASE NOTE---------------------------------#
#This file is the author's own work and represents their interpretation of the #
#song. You may only use this file for private study, scholarship, or research. #
#------------------------------------------------------------------------------#
When I come Around Interlude
Dookie
Green Day
By Brian S
tuned down 1/2 step :(everything on Dookie is played 1/2 down of
standard tuning)
Interlude :
Eb---------3--------5----------3-----5-------3----5-5-5-3~-|
Bb-----------3----3---3-----3----3-----3-------3-----------|
Gb-------------0~--------0---------0------0~---------------|
Db---------------------------------------------------------|
Ab---------------------------------------------------------|
Eb---------------------------------------------------------|
whooo...
Eb--3-3--/12-12-12-12~~~--------|-----------------------------|
Bb------------------------------|-----------------------------|
Gb------------------------------|------------------5~~--------|
Db------------------------------|--7~~-------------5~~--------|
Ab------------------------------|--7~~-------------3~~--------|
Eb------------------------17/---|--5~~------------------------|
no time... cuz you know...
right into chorus




Ваше мнение



Капча