Okay, This is My first time with tabs, so bear with me. Im pretty sure that this is acurate.
The guitar part is simple. Just strum down, up, down, up.
Green Day
Warning

E:--0-0-0-0--2-2-2-2--3-3-3-3--2-2-2-2-
B:--2-2-2-2--3-3-3-3--0-0-0-0--3-3-3-3-
G:--2-2-2-2--2-2-2-2--0-0-0-0--2-2-2-2-
D:--2-2-2-2--0-0-0-0--0-0-0-0--0-0-0-0-
A:--0-0-0-0--x-x-x-x--2-2-2-2--x-x-x-x-
E:--x-x-x-x--x-x-x-x--3-3-3-3--x-x-x-x-
A D G D

The Bass is also pretty easy, its the same over and over, it may get tiring.
------------------------------------
---------------4-5-5-4-----------7--
-------4-5-5-7---------7-5-5---4----
-5-5-7------------------------------
Now here is the easyist solo of all time for guitar.
E:--------------------------------
B:--------------------------------
G:--------------------------------
D:--------------------------------
A:-0-4-0-----0-0-4-0--------------
E:-------3-0---------3-0----------
And Thats It!!
Listen to song to get timing and order, very simple and fun to sing.
A great song from a great Band.Green Day Kicks ASS!!!!!!!!!!!!!!!!


Ваше мнение



Капча