WALKING ALONE
green day
Tabbed by KoRny Freak

intro
|-----------------------------------------------------------------|
|-----------------------------------------------------------------|
|-----------------------------------------------------------------|
|-5-5-5-5-5-5-5-5-2-2-2-2-2-2-2-2-5-5-5-5-5-5-5-5-2-2-2-2-2-2-2-2-|
|-5-5-5-5-5-5-5-5-2-2-2-2-2-2-2-2-5-5-5-5-5-5-5-5-2-2-2-2-2-2-2-2-|
|-3-3-3-3-3-3-3-3-0-0-0-0-0-0-0-0-3-3-3-3-3-3-3-3-0-0-0-0-0-0-0-0-|

verse
|-----------------------------------------------------------------|
|-----------------------------------------------------------------|
|---------------------------------5-5-5-5-5-5-5-5-7-7-7-7-7-7-7-7-|
|-5-5-5-5-5-5-5-5-2-2-2-2-2-2-2-2-5-5-5-5-5-5-5-5-7-7-7-7-7-7-7-7-|
|-5-5-5-5-5-5-5-5-2-2-2-2-2-2-2-2-3-3-3-3-3-3-3-3-5-5-5-5-5-5-5-5-|
|-3-3-3-3-3-3-3-3-0-0-0-0-0-0-0-0---------------------------------|

chorus
|-----------------------------------------------------------------|
|-----------------------------------------------------------------|
|-5-5-5-5-5-5-5-5-7-7-7-7-7-7-7-7-5-5-5-5-5-5-5-5-7-7-7-7-7-7-7-7-|
|-5-5-5-5-5-5-5-5-7-7-7-7-7-7-7-7-5-5-5-5-5-5-5-5-7-7-7-7-7-7-7-7-|
|-3-3-3-3-3-3-3-3-5-5-5-5-5-5-5-5-3-3-3-3-3-3-3-3-5-5-5-5-5-5-5-5-|
|-----------------------------------------------------------------|

|-------------------------------------------------------|
|---3-----1---------------------------------------------|
|---4-----2-------------5-5-5-5-5-5-5-5-7-7-7-7-7-7-7-7-|
|-5-5---3-3----2-2-2----5-5-5-5-5-5-5-5-7-7-7-7-7-7-7-7-|
|-5-----3------2-2-2----3-3-3-3-3-3-3-3-5-5-5-5-5-5-5-5-|
|-3-----1------0-0-0------------------------------------|

solo
|---------------------------------------------------|
|-8-------------------------------------------------|
|---7---9b----------9----12-9--------11----14-11----|
|-----9--------9-10---10------10--12----12-------12-|
|---------------------------------------------------|
|---------------------------------------------------|




Ваше мнение



Капча