UPTIGHT
green day
Tabbed by KoRny Freak

intro/verse
|-----------------------------------------------------------------
|-----------------------------------------------------------------
|-----------------------------------------------------------------
|-4-4-4-3-3-3-4-4-4-3-3-3-4-4-3-3-4-4-4-3-3-3-4-4-4-3-3-3-4-4-3-3-
|-----------------------------------------------------------------
|-----------------------------------------------------------------

-----------------------------------------------------------------|
-----------------------------------------------------------------|
-----------------------------------------------------------6-6---|
-4-4-4-3-3-3-4-4-4-3-3-3-4-4-3-3-4-4-4-3-3-3-4-4-4-3-3-3-4-6-6---|
-----------------------------------------------------------4-4---|
-----------------------------------------------------------------|

post verse – P.MUTED
|---------------------------------|
|---------------------------------|
|-6-6-6-6-6-6-6-6-4-4-4-4-4-4-4-4-|
|-6-6-6-6-6-6-6-6-4-4-4-4-4-4-4-4-|
|-4-4-4-4-4-4-4-4-2-2-2-2-2-2-2-2-|
|---------------------------------|

chorus
|---------------------------------------------------------
|---------------------------------------------------------
|-------------4-4-4-4-4-4-4-4-------------4-4-4-4-4-4-4-4-
|-4--4--4-4-4-4-4-4-4-4-4-4-4-4--4--4-4-4-4-4-4-4-4-4-4-4-
|-4--4--4-4-4-2-2-2-2-2-2-2-2-4--4--4-4-4-2-2-2-2-2-2-2-2-
|-2--2--2-2-2-----------------2--2--2-2-2-----------------

------------------------------------------------------------|
------------------------------------------------------------|
-------------6-6-6-6-6-6-6-6-6----------------4-4-----6-6---|
-4--4--4-4-4-6-6-6-6-6-6-6-6-6-4--4--4-4-4-4--4-4-----6-6---|
-4--4--4-4-4-4-4-4-4-4-4-4-4-4-4--4--4-4-4-4--2-2-----4-4---|
-2--2--2-2-2---:---------------2--2--2-2-2-2----------------|

riff
|-2-2-2-1-1-1-2-2-2-1-1-1-2-2-1-1-|
|-2-2-2-2-2-2-2-2-2-2-2-2-2-2-2-2-|
|---------------------------------|
|---------------------------------|
|---------------------------------|
|---------------------------------|

if you have any questions or comments, email me at
[email protected]





Ваше мнение



Капча