t. See http://www.olga.net/faq/ for more information. #
From: "- -"
Subject: g/green_day/time_of_your_life.crd
Date: Mon, 24 Jan 2000 17:36:54 EST
This involves a lot of picking and you'll probably want to start of real
slow, and maybe try picking w/out the chord changes at first.
There are three main parts. numbers in ( ) are your fingers
The first part is a G chord:
The chord looks like this
1 e -------|-------|--(4)--|-------
2 B -------|-------|--(3)--|-------
3 G -------|-------|-------|-------
4 D -------|-------|-------|-------
5 A -------|--(1)--|-------|-------
6 E -------|-------|--(2)--|-------
Frets: 1 2 3 4
The picking goes like this: 6-4-2-3-4-3
Repeat part 1.
Part 2: C2 chord
1-------|-------|-------|-------
2-------|-------|--(3)--|-------
3-------|-------|-------|-------
4-------|--(1)--|-------|-------
5-------|-------|--(2)--|-------
6-------|-------|-------|-------
5-4-2-3-4-3
Part 3: D chord
1-------|--(2)--|-------|-------
2-------|-------|--(3)--|-------
3-------|--(1)--|-------|-------
4-------|-------|-------|-------
5-------|-------|-------|-------
6-------|-------|-------|-------
4-3-2-3-4-3
And that's the main part that goes on throughout the song. the chorus is
the following chords:
Em D C G Look them up or email me and i'll give them to
you.
That's basically it... Happy Strumming!




Ваше мнение



Капча