Artist: Green Day
Song: Tight Wade Hill
Album: Insomniac
: let ring
Verse
/6 times each
|-------------|-------------------------------|
|-------------|-------------------------------|
|-------------|-------------------------------|
|-6-6-6-6-4-4-|-6-6-6-6-6-6-4-6-6-6-6-6-6-4-4-|
|-6-6-6-6-4-4-|-6-6-6-6-6-6-4-6-6-6-6-6-6-4-4-|
|-4-4-4-4-2-2-|-4-4-4-4-4-4-2-4-4-4-4-4-4-2-2-|
Chorus
/6x each
|-------|---------------|-------------------------------------|
|-------|---------------|-------------------------------------|
|-4-----|---------------|-4-4-4-4-4-4-------------4-4-4-4-4-4-|
|-4-4-6-|-4-6-6-6-6-6-6-|-4-4-4-4-4-4-4-4-4-4-4-4-4-4-4-4-4-4-|
|-2-4-6-|-4-6-6-6-6-6-6-|-2-2-2-2-2-2-4-4-4-4-4-4-2-2-2-2-2-2-|
|---2-4-|-2-4-4-4-4-4-4-|-------------2-2-2-2-2-2-------------|
____play this 2x_____/
|-----------------------------|
|-----------------------------|
|-------------4---------------|
|-4-4-4-4-4-4-4---4---6-6-4-4-|
|-4-4-4-4-4-4-2---4---6-6-4-4-|
|-2-2-2-2-2-2-----2---4-4-2-2-|
J.A.B.




Ваше мнение



Капча